ISO-10303-21;
HEADER;
FILE_DESCRIPTION (( 'STEP AP203' ),
    '1' );
FILE_NAME ('367654.step',
    '2023-04-03T05:54:27',
    ( '' ),
    ( '' ),
    'SwSTEP 2.0',
    'SolidWorks 2022',
    '' );
FILE_SCHEMA (( 'CONFIG_CONTROL_DESIGN' ));
ENDSEC;

DATA;
#1 = CARTESIAN_POINT ( 'NONE',  ( 3.673940397442047049E-16, -3.000000000000000000, -3.673940397442072194E-16 ) ) ;
#2 = EDGE_CURVE ( 'NONE', #150, #44, #226, .T. ) ;
#3 = LINE ( 'NONE', #106, #22 ) ;
#4 = CYLINDRICAL_SURFACE ( 'NONE', #262, 3.000000000000000000 ) ;
#5 = AXIS2_PLACEMENT_3D ( 'NONE', #318, #123, #131 ) ;
#6 = PERSON_AND_ORGANIZATION ( #46, #69 ) ;
#7 = ADVANCED_FACE ( 'NONE', ( #359 ), #243, .T. ) ;
#8 = APPLICATION_PROTOCOL_DEFINITION ( 'international standard', 'config_control_design', 1994, #287 ) ;
#9 = VECTOR ( 'NONE', #108, 1000.000000000000000 ) ;
#10 = PERSON_AND_ORGANIZATION_ROLE ( 'design_supplier' ) ;
#11 = PERSON_AND_ORGANIZATION ( #46, #69 ) ;
#12 = VERTEX_POINT ( 'NONE', #156 ) ;
#13 = CIRCLE ( 'NONE', #293, 3.000000000000000000 ) ;
#14 = EDGE_LOOP ( 'NONE', ( #40, #157 ) ) ;
#15 = EDGE_CURVE ( 'NONE', #21, #74, #299, .T. ) ;
#16 = CARTESIAN_POINT ( 'NONE',  ( 3.673940397442047049E-16, -3.000000000000000000, -3.673940397442072194E-16 ) ) ;
#17 = EDGE_LOOP ( 'NONE', ( #211, #129, #238, #63 ) ) ;
#18 = CARTESIAN_POINT ( 'NONE',  ( 5.237222008264700033E-14, 2.249639673992783675E-32, 15.00000000000000000 ) ) ;
#19 = EDGE_LOOP ( 'NONE', ( #68, #121 ) ) ;
#20 = DIRECTION ( 'NONE',  ( -4.252335473556634944E-31, -1.000000000000000000, -1.217917285207545432E-16 ) ) ;
#21 = VERTEX_POINT ( 'NONE', #239 ) ;
#22 = VECTOR ( 'NONE', #86, 999.9999999999998863 ) ;
#23 = CARTESIAN_POINT ( 'NONE',  ( 5.237222008264700033E-14, 2.999999999999998224, 15.00000000000000000 ) ) ;
#24 = CARTESIAN_POINT ( 'NONE',  ( 5.237222008264700033E-14, -1.836970198721029589E-15, 15.00000000000000000 ) ) ;
#25 = CARTESIAN_POINT ( 'NONE',  ( 0.000000000000000000, 0.000000000000000000, 0.000000000000000000 ) ) ;
#26 = PRODUCT ( '367654', '367654', '', ( #147 ) ) ;
#27 = AXIS2_PLACEMENT_3D ( 'NONE', #304, #165, #338 ) ;
#28 = DIRECTION ( 'NONE',  ( -4.172848212839010723E-31, -1.000000000000000000, -1.174552353525963055E-16 ) ) ;
#29 = EDGE_CURVE ( 'NONE', #124, #289, #71, .T. ) ;
#30 = CYLINDRICAL_SURFACE ( 'NONE', #336, 3.000000000000000000 ) ;
#31 = CARTESIAN_POINT ( 'NONE',  ( 1.282749433769087757E-30, 3.000000000000000000, 3.673940397442059868E-16 ) ) ;
#32 = CARTESIAN_POINT ( 'NONE',  ( 0.000000000000000000, 0.000000000000000000, 0.000000000000000000 ) ) ;
#33 = AXIS2_PLACEMENT_3D ( 'NONE', #25, #276, #217 ) ;
#34 = DATE_TIME_ROLE ( 'creation_date' ) ;
#35 = APPROVAL_ROLE ( '' ) ;
#36 = CIRCLE ( 'NONE', #347, 2.800000000000000266 ) ;
#37 = ORIENTED_EDGE ( 'NONE', *, *, #15, .T. ) ;
#38 = ORIENTED_EDGE ( 'NONE', *, *, #345, .T. ) ;
#39 = CARTESIAN_POINT ( 'NONE',  ( 1.251878519033862008E-13, -3.000000000000001776, 15.00000000000000000 ) ) ;
#40 = ORIENTED_EDGE ( 'NONE', *, *, #245, .T. ) ;
#41 = LINE ( 'NONE', #184, #94 ) ;
#42 = EDGE_LOOP ( 'NONE', ( #313, #38, #99, #178 ) ) ;
#43 = CARTESIAN_POINT ( 'NONE',  ( 1.990144363140586139E-13, -6.980486755139912911E-15, 57.00000000000000000 ) ) ;
#44 = VERTEX_POINT ( 'NONE', #327 ) ;
#45 = FACE_OUTER_BOUND ( 'NONE', #102, .T. ) ;
#46 = PERSON ( 'UNSPECIFIED', 'UNSPECIFIED', 'UNSPECIFIED', ('UNSPECIFIED'), ('UNSPECIFIED'), ('UNSPECIFIED') ) ;
#47 = SECURITY_CLASSIFICATION ( '', '', #169 ) ;
#48 = EDGE_CURVE ( 'NONE', #12, #153, #152, .T. ) ;
#49 = AXIS2_PLACEMENT_3D ( 'NONE', #246, #331, #28 ) ;
#50 = DIRECTION ( 'NONE',  ( -4.172848212839010723E-31, -1.000000000000000000, -1.174552353525963055E-16 ) ) ;
#51 = CARTESIAN_POINT ( 'NONE',  ( 1.972686956446370283E-13, -6.919254415182544548E-15, 56.49999999999999289 ) ) ;
#52 = DIRECTION ( 'NONE',  ( -3.491481338843133355E-15, 1.224646799147353207E-16, -1.000000000000000000 ) ) ;
#53 = CLOSED_SHELL ( 'NONE', ( #229, #199, #179, #353, #148, #59 ) ) ;
#54 = CARTESIAN_POINT ( 'NONE',  ( 0.000000000000000000, 0.000000000000000000, 0.000000000000000000 ) ) ;
#55 = APPROVAL_DATE_TIME ( #232, #282 ) ;
#56 = VECTOR ( 'NONE', #279, 999.9999999999998863 ) ;
#57 = APPLICATION_CONTEXT ( 'configuration controlled 3d designs of mechanical parts and assemblies' ) ;
#58 = CALENDAR_DATE ( 2023, 3, 4 ) ;
#59 = ADVANCED_FACE ( 'NONE', ( #212 ), #98, .F. ) ;
#60 = APPROVAL_PERSON_ORGANIZATION ( #11, #183, #35 ) ;
#61 = MANIFOLD_SOLID_BREP ( 'Corps-Déplacer/Copier1[2]', #253 ) ;
#62 = CIRCLE ( 'NONE', #5, 3.000000000000000000 ) ;
#63 = ORIENTED_EDGE ( 'NONE', *, *, #2, .T. ) ;
#64 = APPLICATION_PROTOCOL_DEFINITION ( 'international standard', 'config_control_design', 1994, #57 ) ;
#65 = ORIENTED_EDGE ( 'NONE', *, *, #308, .T. ) ;
#66 = FACE_OUTER_BOUND ( 'NONE', #267, .T. ) ;
#67 = EDGE_CURVE ( 'NONE', #289, #124, #234, .T. ) ;
#68 = ORIENTED_EDGE ( 'NONE', *, *, #302, .F. ) ;
#69 = ORGANIZATION ( 'UNSPECIFIED', 'UNSPECIFIED', '' ) ;
#70 = CARTESIAN_POINT ( 'NONE',  ( 1.972686956446370283E-13, -6.919254415182544548E-15, 56.49999999999999289 ) ) ;
#71 = CIRCLE ( 'NONE', #180, 3.000000000000000000 ) ;
#72 = ORIENTED_EDGE ( 'NONE', *, *, #207, .T. ) ;
#73 = PLANE ( 'NONE',  #84 ) ;
#74 = VERTEX_POINT ( 'NONE', #323 ) ;
#75 = ADVANCED_FACE ( 'NONE', ( #45 ), #73, .T. ) ;
#76 = DIRECTION ( 'NONE',  ( -3.491481338843133355E-15, 1.224646799147353207E-16, -1.000000000000000000 ) ) ;
#77 = CARTESIAN_POINT ( 'NONE',  ( 5.237222008264700033E-14, -1.836970198721029589E-15, 15.00000000000000000 ) ) ;
#78 = AXIS2_PLACEMENT_3D ( 'NONE', #51, #219, #305 ) ;
#79 = CARTESIAN_POINT ( 'NONE',  ( 1.972686956446370283E-13, 2.999999999999993339, 56.49999999999999289 ) ) ;
#80 = CARTESIAN_POINT ( 'NONE',  ( 1.282749433769087757E-30, 3.000000000000000000, 3.673940397442059868E-16 ) ) ;
#81 = PRODUCT_RELATED_PRODUCT_CATEGORY ( 'detail', '', ( #26 ) ) ;
#82 = LINE ( 'NONE', #192, #56 ) ;
#83 = LOCAL_TIME ( 7, 54, 27.00000000000000000, #224 ) ;
#84 = AXIS2_PLACEMENT_3D ( 'NONE', #352, #358, #360 ) ;
#85 = DIRECTION ( 'NONE',  ( 3.491481338843133355E-15, -1.217917285207545432E-16, 1.000000000000000000 ) ) ;
#86 = DIRECTION ( 'NONE',  ( -2.468850131082286643E-15, 0.7071067811865414665, -0.7071067811865536790 ) ) ;
#87 = ADVANCED_FACE ( 'NONE', ( #127 ), #132, .T. ) ;
#88 = DATE_AND_TIME ( #307, #111 ) ;
#89 = CC_DESIGN_PERSON_AND_ORGANIZATION_ASSIGNMENT ( #258, #339, ( #333 ) ) ;
#90 = COORDINATED_UNIVERSAL_TIME_OFFSET ( 1, 0, .AHEAD. ) ;
#91 = ORIENTED_EDGE ( 'NONE', *, *, #334, .F. ) ;
#92 = APPROVAL_STATUS ( 'not_yet_approved' ) ;
#93 = CC_DESIGN_SECURITY_CLASSIFICATION ( #47, ( #333 ) ) ;
#94 = VECTOR ( 'NONE', #160, 1000.000000000000114 ) ;
#95 = VERTEX_POINT ( 'NONE', #39 ) ;
#96 = CARTESIAN_POINT ( 'NONE',  ( -2.381307865191715919E-30, -2.800000000000000266, -6.820336797162255210E-16 ) ) ;
#97 = ORIENTED_EDGE ( 'NONE', *, *, #310, .T. ) ;
#98 = PLANE ( 'NONE',  #328 ) ;
#99 = ORIENTED_EDGE ( 'NONE', *, *, #218, .T. ) ;
#100 = CARTESIAN_POINT ( 'NONE',  ( 1.972686956446370283E-13, -6.919254415182544548E-15, 56.49999999999999289 ) ) ;
#101 = AXIS2_PLACEMENT_3D ( 'NONE', #185, #344, #326 ) ;
#102 = EDGE_LOOP ( 'NONE', ( #236, #176 ) ) ;
#103 = CARTESIAN_POINT ( 'NONE',  ( 1.251878519033861251E-13, -3.000000000000007105, 56.49999999999999289 ) ) ;
#104 = CARTESIAN_POINT ( 'NONE',  ( 5.237222008264700033E-14, 2.249639673992783675E-32, 15.00000000000000000 ) ) ;
#105 = DIRECTION ( 'NONE',  ( 3.491481338843133355E-15, -1.217917285207545432E-16, 1.000000000000000000 ) ) ;
#106 = CARTESIAN_POINT ( 'NONE',  ( 1.972686956446370283E-13, 2.999999999999993339, 56.49999999999999289 ) ) ;
#107 = AXIS2_PLACEMENT_3D ( 'NONE', #181, #206, #20 ) ;
#108 = DIRECTION ( 'NONE',  ( -3.491481338843133355E-15, 1.224646799147353207E-16, -1.000000000000000000 ) ) ;
#109 = DIRECTION ( 'NONE',  ( 3.491481338843133355E-15, -1.217917285207545432E-16, 1.000000000000000000 ) ) ;
#110 = FACE_OUTER_BOUND ( 'NONE', #315, .T. ) ;
#111 = LOCAL_TIME ( 7, 54, 27.00000000000000000, #146 ) ;
#112 = ADVANCED_FACE ( 'NONE', ( #204 ), #151, .T. ) ;
#113 = DIRECTION ( 'NONE',  ( 0.000000000000000000, 1.000000000000000000, 0.000000000000000000 ) ) ;
#114 = PERSON_AND_ORGANIZATION ( #46, #69 ) ;
#115 = EDGE_CURVE ( 'NONE', #74, #124, #41, .T. ) ;
#116 = LOCAL_TIME ( 7, 54, 27.00000000000000000, #196 ) ;
#117 = APPROVAL_DATE_TIME ( #259, #175 ) ;
#118 = APPROVAL_PERSON_ORGANIZATION ( #142, #282, #230 ) ;
#119 = APPROVAL_STATUS ( 'not_yet_approved' ) ;
#120 = DATE_TIME_ROLE ( 'classification_date' ) ;
#121 = ORIENTED_EDGE ( 'NONE', *, *, #48, .F. ) ;
#122 = EDGE_CURVE ( 'NONE', #12, #44, #296, .T. ) ;
#123 = DIRECTION ( 'NONE',  ( -3.491481338843133355E-15, 1.224646799147353207E-16, -1.000000000000000000 ) ) ;
#124 = VERTEX_POINT ( 'NONE', #103 ) ;
#125 = DIRECTION ( 'NONE',  ( 0.000000000000000000, 1.000000000000000000, 0.000000000000000000 ) ) ;
#126 = ORIENTED_EDGE ( 'NONE', *, *, #139, .F. ) ;
#127 = FACE_OUTER_BOUND ( 'NONE', #231, .T. ) ;
#128 = EDGE_CURVE ( 'NONE', #182, #194, #163, .T. ) ;
#129 = ORIENTED_EDGE ( 'NONE', *, *, #48, .T. ) ;
#130 = CC_DESIGN_APPROVAL ( #175, ( #349 ) ) ;
#131 = DIRECTION ( 'NONE',  ( 0.000000000000000000, 1.000000000000000000, 0.000000000000000000 ) ) ;
#132 = CONICAL_SURFACE ( 'NONE', #221, 3.000000000000000000, 0.7853981633974495002 ) ;
#133 = DIRECTION ( 'NONE',  ( 3.491481338843133355E-15, -1.224646799147353207E-16, 1.000000000000000000 ) ) ;
#134 = PLANE ( 'NONE',  #145 ) ;
#135 = FACE_OUTER_BOUND ( 'NONE', #320, .T. ) ;
#136 = CARTESIAN_POINT ( 'NONE',  ( -1.190653932595857959E-30, 4.153303038100489726E-32, -3.410168398581127605E-16 ) ) ;
#137 = CARTESIAN_POINT ( 'NONE',  ( 6.982962677686212476E-16, -3.000000000000000000, 0.1999999999999984568 ) ) ;
#138 = DIRECTION ( 'NONE',  ( -3.491481338843133355E-15, 1.224646799147353207E-16, -1.000000000000000000 ) ) ;
#139 = EDGE_CURVE ( 'NONE', #95, #297, #62, .T. ) ;
#140 = AXIS2_PLACEMENT_3D ( 'NONE', #270, #186, #158 ) ;
#141 = PERSON_AND_ORGANIZATION_ROLE ( 'classification_officer' ) ;
#142 = PERSON_AND_ORGANIZATION ( #46, #69 ) ;
#143 = CC_DESIGN_PERSON_AND_ORGANIZATION_ASSIGNMENT ( #6, #309, ( #26 ) ) ;
#144 = CC_DESIGN_APPROVAL ( #282, ( #47 ) ) ;
#145 = AXIS2_PLACEMENT_3D ( 'NONE', #18, #298, #244 ) ;
#146 = COORDINATED_UNIVERSAL_TIME_OFFSET ( 1, 0, .AHEAD. ) ;
#147 = MECHANICAL_CONTEXT ( 'NONE', #57, 'mechanical' ) ;
#148 = ADVANCED_FACE ( 'NONE', ( #242 ), #168, .T. ) ;
#149 = ORIENTED_EDGE ( 'NONE', *, *, #306, .F. ) ;
#150 = VERTEX_POINT ( 'NONE', #294 ) ;
#151 = CYLINDRICAL_SURFACE ( 'NONE', #159, 3.000000000000000000 ) ;
#152 = CIRCLE ( 'NONE', #340, 3.000000000000000000 ) ;
#153 = VERTEX_POINT ( 'NONE', #23 ) ;
#154 = FACE_OUTER_BOUND ( 'NONE', #14, .T. ) ;
#155 = ORIENTED_EDGE ( 'NONE', *, *, #245, .F. ) ;
#156 = CARTESIAN_POINT ( 'NONE',  ( 2.690265221495200948E-14, -3.000000000000001776, 15.00000000000000000 ) ) ;
#157 = ORIENTED_EDGE ( 'NONE', *, *, #139, .T. ) ;
#158 = DIRECTION ( 'NONE',  ( 0.000000000000000000, 1.000000000000000000, 0.000000000000000000 ) ) ;
#159 = AXIS2_PLACEMENT_3D ( 'NONE', #264, #214, #235 ) ;
#160 = DIRECTION ( 'NONE',  ( -2.382254525458738374E-15, -0.7071067811865412445, -0.7071067811865536790 ) ) ;
#161 = CARTESIAN_POINT ( 'NONE',  ( 5.237222008264700033E-14, 2.999999999999998224, 15.00000000000000000 ) ) ;
#162 = DIRECTION ( 'NONE',  ( -3.491481338843133355E-15, 1.224646799147353207E-16, -1.000000000000000000 ) ) ;
#163 = CIRCLE ( 'NONE', #107, 2.800000000000000266 ) ;
#164 =( GEOMETRIC_REPRESENTATION_CONTEXT ( 3 ) GLOBAL_UNCERTAINTY_ASSIGNED_CONTEXT ( ( #255 ) ) GLOBAL_UNIT_ASSIGNED_CONTEXT ( ( #252, #167, #283 ) ) REPRESENTATION_CONTEXT ( 'NONE', 'WORKASPACE' ) );
#165 = DIRECTION ( 'NONE',  ( -3.491481338843133355E-15, 1.224646799147353207E-16, -1.000000000000000000 ) ) ;
#166 = DIRECTION ( 'NONE',  ( -3.491481338843133355E-15, 1.224646799147353207E-16, -1.000000000000000000 ) ) ;
#167 =( NAMED_UNIT ( * ) PLANE_ANGLE_UNIT ( ) SI_UNIT ( $, .RADIAN. ) );
#168 = CONICAL_SURFACE ( 'NONE', #140, 3.000000000000000000, 0.7853981633974396193 ) ;
#169 = SECURITY_CLASSIFICATION_LEVEL ( 'unclassified' ) ;
#170 = PERSON_AND_ORGANIZATION ( #46, #69 ) ;
#171 = AXIS2_PLACEMENT_3D ( 'NONE', #335, #85, #193 ) ;
#172 = EDGE_LOOP ( 'NONE', ( #295, #351, #65, #126 ) ) ;
#173 = ADVANCED_BREP_SHAPE_REPRESENTATION ( '367654', ( #174, #61, #274 ), #164 ) ;
#174 = MANIFOLD_SOLID_BREP ( 'Corps-Déplacer/Copier1[1]', #53 ) ;
#175 = APPROVAL ( #92, 'UNSPECIFIED' ) ;
#176 = ORIENTED_EDGE ( 'NONE', *, *, #128, .F. ) ;
#177 = CYLINDRICAL_SURFACE ( 'NONE', #33, 3.000000000000000000 ) ;
#178 = ORIENTED_EDGE ( 'NONE', *, *, #29, .F. ) ;
#179 = ADVANCED_FACE ( 'NONE', ( #154 ), #134, .F. ) ;
#180 = AXIS2_PLACEMENT_3D ( 'NONE', #70, #271, #210 ) ;
#181 = CARTESIAN_POINT ( 'NONE',  ( -1.190653932595857959E-30, 4.153303038100489726E-32, -3.410168398581127605E-16 ) ) ;
#182 = VERTEX_POINT ( 'NONE', #350 ) ;
#183 = APPROVAL ( #342, 'UNSPECIFIED' ) ;
#184 = CARTESIAN_POINT ( 'NONE',  ( 1.976360896843812085E-13, -3.000000000000007105, 56.49999999999999289 ) ) ;
#185 = CARTESIAN_POINT ( 'NONE',  ( 6.982962677686225295E-16, -2.435834570415076443E-17, 0.1999999999999988176 ) ) ;
#186 = DIRECTION ( 'NONE',  ( -3.491481338843133355E-15, 1.224646799147353207E-16, -1.000000000000000000 ) ) ;
#187 = DESIGN_CONTEXT ( 'detailed design', #287, 'design' ) ;
#188 = DIRECTION ( 'NONE',  ( 4.275831445896958607E-31, 1.000000000000000000, 1.224646799147353207E-16 ) ) ;
#189 = VECTOR ( 'NONE', #166, 1000.000000000000000 ) ;
#190 = DIRECTION ( 'NONE',  ( 0.000000000000000000, 1.000000000000000000, 0.000000000000000000 ) ) ;
#191 = FACE_OUTER_BOUND ( 'NONE', #265, .T. ) ;
#192 = CARTESIAN_POINT ( 'NONE',  ( 1.065690307512829749E-15, 3.000000000000000000, 0.1999999999999991784 ) ) ;
#193 = DIRECTION ( 'NONE',  ( -4.172848212839010723E-31, -1.000000000000000000, -1.174552353525963055E-16 ) ) ;
#194 = VERTEX_POINT ( 'NONE', #96 ) ;
#195 = CARTESIAN_POINT ( 'NONE',  ( 0.000000000000000000, 0.000000000000000000, 0.000000000000000000 ) ) ;
#196 = COORDINATED_UNIVERSAL_TIME_OFFSET ( 1, 0, .AHEAD. ) ;
#197 = PERSON_AND_ORGANIZATION ( #46, #69 ) ;
#198 = PERSON_AND_ORGANIZATION_ROLE ( 'creator' ) ;
#199 = ADVANCED_FACE ( 'NONE', ( #66 ), #177, .T. ) ;
#200 = ORIENTED_EDGE ( 'NONE', *, *, #308, .F. ) ;
#201 = CONICAL_SURFACE ( 'NONE', #78, 3.000000000000000000, 0.7853981633974396193 ) ;
#202 = COORDINATED_UNIVERSAL_TIME_OFFSET ( 1, 0, .AHEAD. ) ;
#203 = ORIENTED_EDGE ( 'NONE', *, *, #2, .F. ) ;
#204 = FACE_OUTER_BOUND ( 'NONE', #17, .T. ) ;
#205 = ORIENTED_EDGE ( 'NONE', *, *, #361, .F. ) ;
#206 = DIRECTION ( 'NONE',  ( 3.491481338843133355E-15, -1.217917285207545432E-16, 1.000000000000000000 ) ) ;
#207 = EDGE_CURVE ( 'NONE', #194, #182, #36, .T. ) ;
#208 = ORIENTED_EDGE ( 'NONE', *, *, #115, .T. ) ;
#209 = AXIS2_PLACEMENT_3D ( 'NONE', #24, #162, #113 ) ;
#210 = DIRECTION ( 'NONE',  ( 0.000000000000000000, 1.000000000000000000, 0.000000000000000000 ) ) ;
#211 = ORIENTED_EDGE ( 'NONE', *, *, #122, .F. ) ;
#212 = FACE_OUTER_BOUND ( 'NONE', #260, .T. ) ;
#213 = DIRECTION ( 'NONE',  ( -4.275831445896958607E-31, -1.000000000000000000, -1.224646799147353207E-16 ) ) ;
#214 = DIRECTION ( 'NONE',  ( -3.491481338843133355E-15, 1.224646799147353207E-16, -1.000000000000000000 ) ) ;
#215 = LINE ( 'NONE', #137, #216 ) ;
#216 = VECTOR ( 'NONE', #329, 1000.000000000000000 ) ;
#217 = DIRECTION ( 'NONE',  ( 4.275831445896959482E-31, 1.000000000000000000, 1.224646799147353207E-16 ) ) ;
#218 = EDGE_CURVE ( 'NONE', #21, #289, #3, .T. ) ;
#219 = DIRECTION ( 'NONE',  ( -3.491481338843133355E-15, 1.224646799147353207E-16, -1.000000000000000000 ) ) ;
#220 = DIRECTION ( 'NONE',  ( 4.275831445896959482E-31, 1.000000000000000000, 1.224646799147353207E-16 ) ) ;
#221 = AXIS2_PLACEMENT_3D ( 'NONE', #266, #105, #50 ) ;
#222 = CARTESIAN_POINT ( 'NONE',  ( 5.237222008264700033E-14, -1.836970198721029589E-15, 15.00000000000000000 ) ) ;
#223 = DIRECTION ( 'NONE',  ( 0.000000000000000000, 0.000000000000000000, 1.000000000000000000 ) ) ;
#224 = COORDINATED_UNIVERSAL_TIME_OFFSET ( 1, 0, .AHEAD. ) ;
#225 = CC_DESIGN_PERSON_AND_ORGANIZATION_ASSIGNMENT ( #170, #198, ( #349 ) ) ;
#226 = CIRCLE ( 'NONE', #101, 3.000000000000000000 ) ;
#227 = APPROVAL_PERSON_ORGANIZATION ( #114, #175, #254 ) ;
#228 = DATE_AND_TIME ( #284, #322 ) ;
#229 = ADVANCED_FACE ( 'NONE', ( #110 ), #201, .T. ) ;
#230 = APPROVAL_ROLE ( '' ) ;
#231 = EDGE_LOOP ( 'NONE', ( #72, #324, #205, #149 ) ) ;
#232 = DATE_AND_TIME ( #312, #116 ) ;
#233 = ORIENTED_EDGE ( 'NONE', *, *, #302, .T. ) ;
#234 = CIRCLE ( 'NONE', #277, 3.000000000000000000 ) ;
#235 = DIRECTION ( 'NONE',  ( 4.275831445896959482E-31, 1.000000000000000000, 1.224646799147353207E-16 ) ) ;
#236 = ORIENTED_EDGE ( 'NONE', *, *, #207, .F. ) ;
#237 = DIRECTION ( 'NONE',  ( 0.000000000000000000, 1.000000000000000000, 0.000000000000000000 ) ) ;
#238 = ORIENTED_EDGE ( 'NONE', *, *, #263, .T. ) ;
#239 = CARTESIAN_POINT ( 'NONE',  ( 1.990144363140586139E-13, 2.499999999999994227, 57.00000000000000000 ) ) ;
#240 = ORIENTED_EDGE ( 'NONE', *, *, #67, .T. ) ;
#241 = CIRCLE ( 'NONE', #171, 3.000000000000000000 ) ;
#242 = FACE_OUTER_BOUND ( 'NONE', #42, .T. ) ;
#243 = PLANE ( 'NONE',  #363 ) ;
#244 = DIRECTION ( 'NONE',  ( -4.275831445896958607E-31, -1.000000000000000000, -1.224646799147353207E-16 ) ) ;
#245 = EDGE_CURVE ( 'NONE', #297, #95, #286, .T. ) ;
#246 = CARTESIAN_POINT ( 'NONE',  ( 6.982962677686225295E-16, -2.435834570415076443E-17, 0.1999999999999988176 ) ) ;
#247 = LINE ( 'NONE', #80, #189 ) ;
#248 = ADVANCED_FACE ( 'NONE', ( #135 ), #249, .T. ) ;
#249 = CONICAL_SURFACE ( 'NONE', #49, 3.000000000000000000, 0.7853981633974495002 ) ;
#250 = LINE ( 'NONE', #1, #257 ) ;
#251 = CC_DESIGN_DATE_AND_TIME_ASSIGNMENT ( #288, #120, ( #47 ) ) ;
#252 =( LENGTH_UNIT ( ) NAMED_UNIT ( * ) SI_UNIT ( .MILLI., .METRE. ) );
#253 = CLOSED_SHELL ( 'NONE', ( #87, #272, #112, #7, #248, #75 ) ) ;
#254 = APPROVAL_ROLE ( '' ) ;
#255 = UNCERTAINTY_MEASURE_WITH_UNIT (LENGTH_MEASURE( 1.000000000000000082E-05 ), #252, 'distance_accuracy_value', 'NONE');
#256 = SHAPE_DEFINITION_REPRESENTATION ( #330, #173 ) ;
#257 = VECTOR ( 'NONE', #332, 1000.000000000000000 ) ;
#258 = PERSON_AND_ORGANIZATION ( #46, #69 ) ;
#259 = DATE_AND_TIME ( #280, #83 ) ;
#260 = EDGE_LOOP ( 'NONE', ( #354, #261 ) ) ;
#261 = ORIENTED_EDGE ( 'NONE', *, *, #345, .F. ) ;
#262 = AXIS2_PLACEMENT_3D ( 'NONE', #54, #303, #362 ) ;
#263 = EDGE_CURVE ( 'NONE', #153, #150, #247, .T. ) ;
#264 = CARTESIAN_POINT ( 'NONE',  ( 0.000000000000000000, 0.000000000000000000, 0.000000000000000000 ) ) ;
#265 = EDGE_LOOP ( 'NONE', ( #233, #269, #357, #348 ) ) ;
#266 = CARTESIAN_POINT ( 'NONE',  ( 6.982962677686225295E-16, -2.435834570415076443E-17, 0.1999999999999988176 ) ) ;
#267 = EDGE_LOOP ( 'NONE', ( #240, #97, #155, #200 ) ) ;
#268 = CARTESIAN_POINT ( 'NONE',  ( 1.990144363140586139E-13, 1.874699728327312704E-32, 57.00000000000000000 ) ) ;
#269 = ORIENTED_EDGE ( 'NONE', *, *, #122, .T. ) ;
#270 = CARTESIAN_POINT ( 'NONE',  ( 1.972686956446370283E-13, -6.919254415182544548E-15, 56.49999999999999289 ) ) ;
#271 = DIRECTION ( 'NONE',  ( -3.491481338843133355E-15, 1.224646799147353207E-16, -1.000000000000000000 ) ) ;
#272 = ADVANCED_FACE ( 'NONE', ( #191 ), #4, .T. ) ;
#273 = DIRECTION ( 'NONE',  ( -4.252335473556634944E-31, -1.000000000000000000, -1.217917285207545432E-16 ) ) ;
#274 = AXIS2_PLACEMENT_3D ( 'NONE', #32, #223, #343 ) ;
#275 = CC_DESIGN_PERSON_AND_ORGANIZATION_ASSIGNMENT ( #311, #141, ( #47 ) ) ;
#276 = DIRECTION ( 'NONE',  ( -3.491481338843133355E-15, 1.224646799147353207E-16, -1.000000000000000000 ) ) ;
#277 = AXIS2_PLACEMENT_3D ( 'NONE', #100, #300, #125 ) ;
#278 = FACE_OUTER_BOUND ( 'NONE', #172, .T. ) ;
#279 = DIRECTION ( 'NONE',  ( 2.555445736705812823E-15, 0.7071067811865483499, 0.7071067811865467956 ) ) ;
#280 = CALENDAR_DATE ( 2023, 3, 4 ) ;
#281 = AXIS2_PLACEMENT_3D ( 'NONE', #43, #316, #291 ) ;
#282 = APPROVAL ( #119, 'UNSPECIFIED' ) ;
#283 =( NAMED_UNIT ( * ) SI_UNIT ( $, .STERADIAN. ) SOLID_ANGLE_UNIT ( ) );
#284 = CALENDAR_DATE ( 2023, 3, 4 ) ;
#285 = CC_DESIGN_DATE_AND_TIME_ASSIGNMENT ( #228, #34, ( #349 ) ) ;
#286 = CIRCLE ( 'NONE', #209, 3.000000000000000000 ) ;
#287 = APPLICATION_CONTEXT ( 'configuration controlled 3d designs of mechanical parts and assemblies' ) ;
#288 = DATE_AND_TIME ( #58, #346 ) ;
#289 = VERTEX_POINT ( 'NONE', #79 ) ;
#290 = ORIENTED_EDGE ( 'NONE', *, *, #128, .T. ) ;
#291 = DIRECTION ( 'NONE',  ( 0.000000000000000000, 1.000000000000000000, 0.000000000000000000 ) ) ;
#292 = ORIENTED_EDGE ( 'NONE', *, *, #218, .F. ) ;
#293 = AXIS2_PLACEMENT_3D ( 'NONE', #222, #52, #190 ) ;
#294 = CARTESIAN_POINT ( 'NONE',  ( 2.653525817520781981E-14, 3.000000000000000000, 0.1999999999999991784 ) ) ;
#295 = ORIENTED_EDGE ( 'NONE', *, *, #310, .F. ) ;
#296 = LINE ( 'NONE', #16, #321 ) ;
#297 = VERTEX_POINT ( 'NONE', #161 ) ;
#298 = DIRECTION ( 'NONE',  ( 3.491481338843133355E-15, -1.224646799147353207E-16, 1.000000000000000000 ) ) ;
#299 = CIRCLE ( 'NONE', #281, 2.500000000000001332 ) ;
#300 = DIRECTION ( 'NONE',  ( -3.491481338843133355E-15, 1.224646799147353207E-16, -1.000000000000000000 ) ) ;
#301 = LINE ( 'NONE', #31, #9 ) ;
#302 = EDGE_CURVE ( 'NONE', #153, #12, #13, .T. ) ;
#303 = DIRECTION ( 'NONE',  ( -3.491481338843133355E-15, 1.224646799147353207E-16, -1.000000000000000000 ) ) ;
#304 = CARTESIAN_POINT ( 'NONE',  ( 1.990144363140586139E-13, -6.980486755139912911E-15, 57.00000000000000000 ) ) ;
#305 = DIRECTION ( 'NONE',  ( 0.000000000000000000, 1.000000000000000000, 0.000000000000000000 ) ) ;
#306 = EDGE_CURVE ( 'NONE', #194, #44, #215, .T. ) ;
#307 = CALENDAR_DATE ( 2023, 3, 4 ) ;
#308 = EDGE_CURVE ( 'NONE', #289, #297, #301, .T. ) ;
#309 = PERSON_AND_ORGANIZATION_ROLE ( 'design_owner' ) ;
#310 = EDGE_CURVE ( 'NONE', #124, #95, #250, .T. ) ;
#311 = PERSON_AND_ORGANIZATION ( #46, #69 ) ;
#312 = CALENDAR_DATE ( 2023, 3, 4 ) ;
#313 = ORIENTED_EDGE ( 'NONE', *, *, #115, .F. ) ;
#314 = APPROVAL_DATE_TIME ( #88, #183 ) ;
#315 = EDGE_LOOP ( 'NONE', ( #37, #208, #317, #292 ) ) ;
#316 = DIRECTION ( 'NONE',  ( -3.491481338843133355E-15, 1.224646799147353207E-16, -1.000000000000000000 ) ) ;
#317 = ORIENTED_EDGE ( 'NONE', *, *, #67, .F. ) ;
#318 = CARTESIAN_POINT ( 'NONE',  ( 5.237222008264700033E-14, -1.836970198721029589E-15, 15.00000000000000000 ) ) ;
#319 = CC_DESIGN_APPROVAL ( #183, ( #333 ) ) ;
#320 = EDGE_LOOP ( 'NONE', ( #91, #290, #337, #203 ) ) ;
#321 = VECTOR ( 'NONE', #76, 1000.000000000000000 ) ;
#322 = LOCAL_TIME ( 7, 54, 27.00000000000000000, #202 ) ;
#323 = CARTESIAN_POINT ( 'NONE',  ( 1.984783438491133490E-13, -2.500000000000008438, 57.00000000000000000 ) ) ;
#324 = ORIENTED_EDGE ( 'NONE', *, *, #334, .T. ) ;
#325 = DIRECTION ( 'NONE',  ( -3.491481338843133355E-15, 1.224646799147353207E-16, -1.000000000000000000 ) ) ;
#326 = DIRECTION ( 'NONE',  ( -4.172848212839010723E-31, -1.000000000000000000, -1.174552353525963055E-16 ) ) ;
#327 = CARTESIAN_POINT ( 'NONE',  ( 2.690265221495201579E-14, -3.000000000000000000, 0.1999999999999984568 ) ) ;
#328 = AXIS2_PLACEMENT_3D ( 'NONE', #268, #325, #188 ) ;
#329 = DIRECTION ( 'NONE',  ( 2.468850131082262188E-15, -0.7071067811865484609, 0.7071067811865465735 ) ) ;
#330 = PRODUCT_DEFINITION_SHAPE ( 'NONE', 'NONE',  #349 ) ;
#331 = DIRECTION ( 'NONE',  ( 3.491481338843133355E-15, -1.217917285207545432E-16, 1.000000000000000000 ) ) ;
#332 = DIRECTION ( 'NONE',  ( -3.491481338843133355E-15, 1.224646799147353207E-16, -1.000000000000000000 ) ) ;
#333 = PRODUCT_DEFINITION_FORMATION_WITH_SPECIFIED_SOURCE ( 'ANY', '', #26, .NOT_KNOWN. ) ;
#334 = EDGE_CURVE ( 'NONE', #182, #150, #82, .T. ) ;
#335 = CARTESIAN_POINT ( 'NONE',  ( 6.982962677686225295E-16, -2.435834570415076443E-17, 0.1999999999999988176 ) ) ;
#336 = AXIS2_PLACEMENT_3D ( 'NONE', #195, #138, #220 ) ;
#337 = ORIENTED_EDGE ( 'NONE', *, *, #306, .T. ) ;
#338 = DIRECTION ( 'NONE',  ( 0.000000000000000000, 1.000000000000000000, 0.000000000000000000 ) ) ;
#339 = PERSON_AND_ORGANIZATION_ROLE ( 'creator' ) ;
#340 = AXIS2_PLACEMENT_3D ( 'NONE', #77, #355, #237 ) ;
#341 = CIRCLE ( 'NONE', #27, 2.500000000000001332 ) ;
#342 = APPROVAL_STATUS ( 'not_yet_approved' ) ;
#343 = DIRECTION ( 'NONE',  ( 1.000000000000000000, 0.000000000000000000, 0.000000000000000000 ) ) ;
#344 = DIRECTION ( 'NONE',  ( 3.491481338843133355E-15, -1.217917285207545432E-16, 1.000000000000000000 ) ) ;
#345 = EDGE_CURVE ( 'NONE', #74, #21, #341, .T. ) ;
#346 = LOCAL_TIME ( 7, 54, 27.00000000000000000, #90 ) ;
#347 = AXIS2_PLACEMENT_3D ( 'NONE', #136, #109, #273 ) ;
#348 = ORIENTED_EDGE ( 'NONE', *, *, #263, .F. ) ;
#349 = PRODUCT_DEFINITION ( 'UNKNOWN', '', #333, #187 ) ;
#350 = CARTESIAN_POINT ( 'NONE',  ( 7.042957056370455216E-16, 2.800000000000000266, -2.455560679093725713E-30 ) ) ;
#351 = ORIENTED_EDGE ( 'NONE', *, *, #29, .T. ) ;
#352 = CARTESIAN_POINT ( 'NONE',  ( -6.413747168845438786E-31, 2.249639673992786412E-32, -1.836970198721029934E-16 ) ) ;
#353 = ADVANCED_FACE ( 'NONE', ( #278 ), #30, .T. ) ;
#354 = ORIENTED_EDGE ( 'NONE', *, *, #15, .F. ) ;
#355 = DIRECTION ( 'NONE',  ( -3.491481338843133355E-15, 1.224646799147353207E-16, -1.000000000000000000 ) ) ;
#356 = CC_DESIGN_PERSON_AND_ORGANIZATION_ASSIGNMENT ( #197, #10, ( #333 ) ) ;
#357 = ORIENTED_EDGE ( 'NONE', *, *, #361, .T. ) ;
#358 = DIRECTION ( 'NONE',  ( -3.491481338843133355E-15, 1.224646799147353207E-16, -1.000000000000000000 ) ) ;
#359 = FACE_OUTER_BOUND ( 'NONE', #19, .T. ) ;
#360 = DIRECTION ( 'NONE',  ( 4.275831445896958607E-31, 1.000000000000000000, 1.224646799147353207E-16 ) ) ;
#361 = EDGE_CURVE ( 'NONE', #44, #150, #241, .T. ) ;
#362 = DIRECTION ( 'NONE',  ( 4.275831445896959482E-31, 1.000000000000000000, 1.224646799147353207E-16 ) ) ;
#363 = AXIS2_PLACEMENT_3D ( 'NONE', #104, #133, #213 ) ;
ENDSEC;
END-ISO-10303-21;
