ISO-10303-21;
HEADER;
FILE_DESCRIPTION (( 'STEP AP203' ),
    '1' );
FILE_NAME ('367653.step',
    '2023-04-03T05:54:26',
    ( '' ),
    ( '' ),
    'SwSTEP 2.0',
    'SolidWorks 2022',
    '' );
FILE_SCHEMA (( 'CONFIG_CONTROL_DESIGN' ));
ENDSEC;

DATA;
#1 = MANIFOLD_SOLID_BREP ( 'Corps-Déplacer/Copier1[2]', #130 ) ;
#2 = AXIS2_PLACEMENT_3D ( 'NONE', #358, #331, #196 ) ;
#3 = ADVANCED_FACE ( 'NONE', ( #107 ), #60, .T. ) ;
#4 = APPLICATION_PROTOCOL_DEFINITION ( 'international standard', 'config_control_design', 1994, #280 ) ;
#5 = APPROVAL_PERSON_ORGANIZATION ( #88, #91, #311 ) ;
#6 = CALENDAR_DATE ( 2023, 3, 4 ) ;
#7 = AXIS2_PLACEMENT_3D ( 'NONE', #142, #333, #220 ) ;
#8 = ORIENTED_EDGE ( 'NONE', *, *, #67, .T. ) ;
#9 = EDGE_CURVE ( 'NONE', #310, #165, #221, .T. ) ;
#10 = DIRECTION ( 'NONE',  ( 4.275831445896958607E-31, 1.000000000000000000, 1.224646799147353454E-16 ) ) ;
#11 = SHAPE_DEFINITION_REPRESENTATION ( #256, #83 ) ;
#12 = DIRECTION ( 'NONE',  ( -4.237045877651918877E-31, -1.000000000000000000, -1.219727444046192488E-16 ) ) ;
#13 = AXIS2_PLACEMENT_3D ( 'NONE', #98, #139, #241 ) ;
#14 = EDGE_LOOP ( 'NONE', ( #119, #346, #359, #250 ) ) ;
#15 = CARTESIAN_POINT ( 'NONE',  ( 3.596225779008427482E-13, -1.261386203121774077E-14, 103.0000000000000142 ) ) ;
#16 = VERTEX_POINT ( 'NONE', #321 ) ;
#17 = DIRECTION ( 'NONE',  ( -4.237045877651918877E-31, -1.000000000000000000, -1.219727444046192488E-16 ) ) ;
#18 = LOCAL_TIME ( 7, 54, 26.00000000000000000, #96 ) ;
#19 = EDGE_CURVE ( 'NONE', #165, #310, #294, .T. ) ;
#20 = CARTESIAN_POINT ( 'NONE',  ( 1.396592535537253342E-13, 7.498798913309283660E-32, 40.00000000000000000 ) ) ;
#21 = EDGE_LOOP ( 'NONE', ( #269, #255, #84, #183 ) ) ;
#22 = FACE_OUTER_BOUND ( 'NONE', #75, .T. ) ;
#23 = ORIENTED_EDGE ( 'NONE', *, *, #9, .F. ) ;
#24 = LINE ( 'NONE', #219, #319 ) ;
#25 = AXIS2_PLACEMENT_3D ( 'NONE', #150, #313, #121 ) ;
#26 = AXIS2_PLACEMENT_3D ( 'NONE', #76, #198, #224 ) ;
#27 = CARTESIAN_POINT ( 'NONE',  ( 1.396592535537253342E-13, -4.898587196589413815E-15, 40.00000000000000000 ) ) ;
#28 = CARTESIAN_POINT ( 'NONE',  ( 3.596225779008427482E-13, -1.261386203121774077E-14, 103.0000000000000142 ) ) ;
#29 = EDGE_CURVE ( 'NONE', #115, #195, #204, .T. ) ;
#30 = DATE_AND_TIME ( #202, #187 ) ;
#31 = CC_DESIGN_SECURITY_CLASSIFICATION ( #182, ( #228 ) ) ;
#32 = EDGE_CURVE ( 'NONE', #184, #115, #156, .T. ) ;
#33 = CIRCLE ( 'NONE', #312, 10.00000000000000000 ) ;
#34 = PERSON_AND_ORGANIZATION_ROLE ( 'creator' ) ;
#35 = ORIENTED_EDGE ( 'NONE', *, *, #213, .F. ) ;
#36 = APPLICATION_PROTOCOL_DEFINITION ( 'international standard', 'config_control_design', 1994, #304 ) ;
#37 = ORIENTED_EDGE ( 'NONE', *, *, #99, .F. ) ;
#38 = DIRECTION ( 'NONE',  ( -3.491481338843133355E-15, 1.224646799147353454E-16, -1.000000000000000000 ) ) ;
#39 = FACE_OUTER_BOUND ( 'NONE', #21, .T. ) ;
#40 = PERSON_AND_ORGANIZATION_ROLE ( 'classification_officer' ) ;
#41 = DIRECTION ( 'NONE',  ( -3.491481338843133355E-15, 1.224646799147353454E-16, -1.000000000000000000 ) ) ;
#42 = DATE_AND_TIME ( #216, #339 ) ;
#43 = AXIS2_PLACEMENT_3D ( 'NONE', #179, #38, #287 ) ;
#44 = DIRECTION ( 'NONE',  ( 4.275831445896959482E-31, 1.000000000000000000, 1.224646799147353454E-16 ) ) ;
#45 = PRODUCT_RELATED_PRODUCT_CATEGORY ( 'detail', '', ( #63 ) ) ;
#46 = DIRECTION ( 'NONE',  ( 0.000000000000000000, 1.000000000000000000, 0.000000000000000000 ) ) ;
#47 = ORIENTED_EDGE ( 'NONE', *, *, #279, .F. ) ;
#48 = DIRECTION ( 'NONE',  ( -3.491481338843133355E-15, 1.224646799147353454E-16, -1.000000000000000000 ) ) ;
#49 = LINE ( 'NONE', #148, #125 ) ;
#50 = CIRCLE ( 'NONE', #97, 10.00000000000000000 ) ;
#51 = FACE_OUTER_BOUND ( 'NONE', #201, .T. ) ;
#52 = CARTESIAN_POINT ( 'NONE',  ( 1.396592535537253342E-13, -4.898587196589413815E-15, 40.00000000000000000 ) ) ;
#53 = ADVANCED_FACE ( 'NONE', ( #325 ), #351, .T. ) ;
#54 = AXIS2_PLACEMENT_3D ( 'NONE', #15, #136, #240 ) ;
#55 = FACE_OUTER_BOUND ( 'NONE', #66, .T. ) ;
#56 = ORIENTED_EDGE ( 'NONE', *, *, #342, .T. ) ;
#57 = APPROVAL_STATUS ( 'not_yet_approved' ) ;
#58 = CARTESIAN_POINT ( 'NONE',  ( 4.275831445896958957E-30, 10.00000000000000000, 1.224646799147353454E-15 ) ) ;
#59 = EDGE_LOOP ( 'NONE', ( #37, #135, #171, #259 ) ) ;
#60 = CONICAL_SURFACE ( 'NONE', #217, 10.00000000000000000, 0.7853981633974552734 ) ;
#61 = AXIS2_PLACEMENT_3D ( 'NONE', #159, #157, #291 ) ;
#62 = PERSON_AND_ORGANIZATION ( #110, #343 ) ;
#63 = PRODUCT ( '367653', '367653', '', ( #173 ) ) ;
#64 = DATE_TIME_ROLE ( 'creation_date' ) ;
#65 = CARTESIAN_POINT ( 'NONE',  ( 6.982962677686191769E-16, -10.00000000000000000, 0.1999999999999978462 ) ) ;
#66 = EDGE_LOOP ( 'NONE', ( #235, #215, #207, #274 ) ) ;
#67 = EDGE_CURVE ( 'NONE', #233, #195, #316, .T. ) ;
#68 = APPROVAL_STATUS ( 'not_yet_approved' ) ;
#69 = DIRECTION ( 'NONE',  ( 2.555445736705814007E-15, 0.7071067811865479058, 0.7071067811865472397 ) ) ;
#70 = SECURITY_CLASSIFICATION_LEVEL ( 'unclassified' ) ;
#71 = APPROVAL_PERSON_ORGANIZATION ( #62, #180, #181 ) ;
#72 = PLANE ( 'NONE',  #131 ) ;
#73 = AXIS2_PLACEMENT_3D ( 'NONE', #162, #267, #17 ) ;
#74 = VERTEX_POINT ( 'NONE', #212 ) ;
#75 = EDGE_LOOP ( 'NONE', ( #177, #296, #8, #355 ) ) ;
#76 = CARTESIAN_POINT ( 'NONE',  ( 0.000000000000000000, 0.000000000000000000, 0.000000000000000000 ) ) ;
#77 = ADVANCED_FACE ( 'NONE', ( #345 ), #72, .T. ) ;
#78 = ORIENTED_EDGE ( 'NONE', *, *, #349, .T. ) ;
#79 = DIRECTION ( 'NONE',  ( 3.491481338843133355E-15, -1.217917285207545432E-16, 1.000000000000000000 ) ) ;
#80 = PRODUCT_DEFINITION ( 'UNKNOWN', '', #228, #318 ) ;
#81 = CIRCLE ( 'NONE', #284, 10.00000000000000000 ) ;
#82 = DIRECTION ( 'NONE',  ( 0.000000000000000000, 1.000000000000000000, 0.000000000000000000 ) ) ;
#83 = ADVANCED_BREP_SHAPE_REPRESENTATION ( '367653', ( #357, #1, #25 ), #138 ) ;
#84 = ORIENTED_EDGE ( 'NONE', *, *, #361, .T. ) ;
#85 = ADVANCED_FACE ( 'NONE', ( #39 ), #260, .T. ) ;
#86 = DIRECTION ( 'NONE',  ( -2.382254525458698931E-15, -0.7071067811865523467, -0.7071067811865426878 ) ) ;
#87 = DIRECTION ( 'NONE',  ( 3.491481338843133355E-15, -1.217917285207545432E-16, 1.000000000000000000 ) ) ;
#88 = PERSON_AND_ORGANIZATION ( #110, #343 ) ;
#89 = ORIENTED_EDGE ( 'NONE', *, *, #19, .T. ) ;
#90 = APPROVAL_DATE_TIME ( #30, #180 ) ;
#91 = APPROVAL ( #230, 'UNSPECIFIED' ) ;
#92 = COORDINATED_UNIVERSAL_TIME_OFFSET ( 1, 0, .AHEAD. ) ;
#93 = AXIS2_PLACEMENT_3D ( 'NONE', #222, #87, #298 ) ;
#94 = DATE_AND_TIME ( #340, #176 ) ;
#95 = ADVANCED_FACE ( 'NONE', ( #266 ), #306, .T. ) ;
#96 = COORDINATED_UNIVERSAL_TIME_OFFSET ( 1, 0, .AHEAD. ) ;
#97 = AXIS2_PLACEMENT_3D ( 'NONE', #114, #247, #360 ) ;
#98 = CARTESIAN_POINT ( 'NONE',  ( 1.396592535537253342E-13, -4.898587196589413815E-15, 40.00000000000000000 ) ) ;
#99 = EDGE_CURVE ( 'NONE', #16, #74, #186, .T. ) ;
#100 = PERSON_AND_ORGANIZATION_ROLE ( 'creator' ) ;
#101 = DIRECTION ( 'NONE',  ( -4.275831445896959482E-31, -1.000000000000000000, -1.224646799147353454E-16 ) ) ;
#102 = CARTESIAN_POINT ( 'NONE',  ( 1.922943066915980914E-15, 10.00000000000000000, 0.2000000000000002887 ) ) ;
#103 = ORIENTED_EDGE ( 'NONE', *, *, #317, .F. ) ;
#104 = PERSON_AND_ORGANIZATION ( #110, #343 ) ;
#105 = CARTESIAN_POINT ( 'NONE',  ( 0.000000000000000000, 0.000000000000000000, 0.000000000000000000 ) ) ;
#106 = CONICAL_SURFACE ( 'NONE', #356, 10.00000000000000000, 0.7853981633974489451 ) ;
#107 = FACE_OUTER_BOUND ( 'NONE', #326, .T. ) ;
#108 = CC_DESIGN_DATE_AND_TIME_ASSIGNMENT ( #94, #64, ( #80 ) ) ;
#109 = CARTESIAN_POINT ( 'NONE',  ( 1.561548465040197574E-15, 9.799999999999998934, -5.392603844284260389E-30 ) ) ;
#110 = PERSON ( 'UNSPECIFIED', 'UNSPECIFIED', 'UNSPECIFIED', ('UNSPECIFIED'), ('UNSPECIFIED'), ('UNSPECIFIED') ) ;
#111 = CC_DESIGN_APPROVAL ( #205, ( #182 ) ) ;
#112 = CARTESIAN_POINT ( 'NONE',  ( 3.625317330294542799E-13, -9.000000000000010658, 104.0000000000000000 ) ) ;
#113 = VECTOR ( 'NONE', #86, 1000.000000000000000 ) ;
#114 = CARTESIAN_POINT ( 'NONE',  ( 6.982962677686234170E-16, -2.435834570415079525E-17, 0.1999999999999990674 ) ) ;
#115 = VERTEX_POINT ( 'NONE', #218 ) ;
#116 = CC_DESIGN_PERSON_AND_ORGANIZATION_ASSIGNMENT ( #261, #40, ( #182 ) ) ;
#117 = CYLINDRICAL_SURFACE ( 'NONE', #7, 10.00000000000000000 ) ;
#118 =( NAMED_UNIT ( * ) SI_UNIT ( $, .STERADIAN. ) SOLID_ANGLE_UNIT ( ) );
#119 = ORIENTED_EDGE ( 'NONE', *, *, #174, .T. ) ;
#120 = AXIS2_PLACEMENT_3D ( 'NONE', #328, #134, #101 ) ;
#121 = DIRECTION ( 'NONE',  ( 1.000000000000000000, 0.000000000000000000, 0.000000000000000000 ) ) ;
#122 =( NAMED_UNIT ( * ) PLANE_ANGLE_UNIT ( ) SI_UNIT ( $, .RADIAN. ) );
#123 = CC_DESIGN_APPROVAL ( #180, ( #228 ) ) ;
#124 = ADVANCED_FACE ( 'NONE', ( #132 ), #229, .T. ) ;
#125 = VECTOR ( 'NONE', #272, 999.9999999999998863 ) ;
#126 = DIRECTION ( 'NONE',  ( -3.491481338843133355E-15, 1.224646799147353454E-16, -1.000000000000000000 ) ) ;
#127 = EDGE_LOOP ( 'NONE', ( #199, #47 ) ) ;
#128 = EDGE_CURVE ( 'NONE', #320, #285, #246, .T. ) ;
#129 = DIRECTION ( 'NONE',  ( -3.491481338843133355E-15, 1.224646799147353454E-16, -1.000000000000000000 ) ) ;
#130 = CLOSED_SHELL ( 'NONE', ( #124, #143, #85, #53, #160, #77 ) ) ;
#131 = AXIS2_PLACEMENT_3D ( 'NONE', #297, #323, #44 ) ;
#132 = FACE_OUTER_BOUND ( 'NONE', #14, .T. ) ;
#133 = CALENDAR_DATE ( 2023, 3, 4 ) ;
#134 = DIRECTION ( 'NONE',  ( 3.491481338843133355E-15, -1.224646799147353454E-16, 1.000000000000000000 ) ) ;
#135 = ORIENTED_EDGE ( 'NONE', *, *, #317, .T. ) ;
#136 = DIRECTION ( 'NONE',  ( -3.491481338843133355E-15, 1.224646799147353454E-16, -1.000000000000000000 ) ) ;
#137 = ADVANCED_FACE ( 'NONE', ( #211 ), #292, .F. ) ;
#138 =( GEOMETRIC_REPRESENTATION_CONTEXT ( 3 ) GLOBAL_UNCERTAINTY_ASSIGNED_CONTEXT ( ( #268 ) ) GLOBAL_UNIT_ASSIGNED_CONTEXT ( ( #281, #122, #118 ) ) REPRESENTATION_CONTEXT ( 'NONE', 'WORKASPACE' ) );
#139 = DIRECTION ( 'NONE',  ( -3.491481338843133355E-15, 1.224646799147353454E-16, -1.000000000000000000 ) ) ;
#140 = ORIENTED_EDGE ( 'NONE', *, *, #251, .F. ) ;
#141 = DIRECTION ( 'NONE',  ( 0.000000000000000000, 1.000000000000000000, 0.000000000000000000 ) ) ;
#142 = CARTESIAN_POINT ( 'NONE',  ( 0.000000000000000000, 0.000000000000000000, 0.000000000000000000 ) ) ;
#143 = ADVANCED_FACE ( 'NONE', ( #55 ), #275, .T. ) ;
#144 = LOCAL_TIME ( 7, 54, 26.00000000000000000, #92 ) ;
#145 = DIRECTION ( 'NONE',  ( 3.491481338843133355E-15, -1.224646799147353454E-16, 1.000000000000000000 ) ) ;
#146 = VECTOR ( 'NONE', #69, 1000.000000000000000 ) ;
#147 = DIRECTION ( 'NONE',  ( -4.237045877651918877E-31, -1.000000000000000000, -1.219727444046192488E-16 ) ) ;
#148 = CARTESIAN_POINT ( 'NONE',  ( 3.596225779008427482E-13, 9.999999999999987566, 103.0000000000000142 ) ) ;
#149 = AXIS2_PLACEMENT_3D ( 'NONE', #28, #249, #329 ) ;
#150 = CARTESIAN_POINT ( 'NONE',  ( 0.000000000000000000, 0.000000000000000000, 0.000000000000000000 ) ) ;
#151 = ORIENTED_EDGE ( 'NONE', *, *, #19, .F. ) ;
#152 = CARTESIAN_POINT ( 'NONE',  ( 1.396592535537253342E-13, -4.898587196589413815E-15, 40.00000000000000000 ) ) ;
#153 = ADVANCED_FACE ( 'NONE', ( #276 ), #117, .T. ) ;
#154 = PERSON_AND_ORGANIZATION ( #110, #343 ) ;
#155 = VECTOR ( 'NONE', #129, 1000.000000000000000 ) ;
#156 = LINE ( 'NONE', #102, #146 ) ;
#157 = DIRECTION ( 'NONE',  ( -3.491481338843133355E-15, 1.224646799147353454E-16, -1.000000000000000000 ) ) ;
#158 = AXIS2_PLACEMENT_3D ( 'NONE', #347, #262, #12 ) ;
#159 = CARTESIAN_POINT ( 'NONE',  ( 3.631140592396858689E-13, -1.273632671113247592E-14, 104.0000000000000000 ) ) ;
#160 = ADVANCED_FACE ( 'NONE', ( #22 ), #106, .T. ) ;
#161 = VERTEX_POINT ( 'NONE', #169 ) ;
#162 = CARTESIAN_POINT ( 'NONE',  ( 6.982962677686234170E-16, -2.435834570415079525E-17, 0.1999999999999990674 ) ) ;
#163 = DIRECTION ( 'NONE',  ( -3.491481338843133355E-15, 1.224646799147353454E-16, -1.000000000000000000 ) ) ;
#164 = CIRCLE ( 'NONE', #2, 9.799999999999998934 ) ;
#165 = VERTEX_POINT ( 'NONE', #168 ) ;
#166 = DIRECTION ( 'NONE',  ( -3.491481338843133355E-15, 1.224646799147353454E-16, -1.000000000000000000 ) ) ;
#167 = EDGE_LOOP ( 'NONE', ( #78, #265 ) ) ;
#168 = CARTESIAN_POINT ( 'NONE',  ( 3.631140592396858689E-13, 8.999999999999987566, 104.0000000000000000 ) ) ;
#169 = CARTESIAN_POINT ( 'NONE',  ( 1.396592535537253342E-13, 9.999999999999994671, 40.00000000000000000 ) ) ;
#170 = CIRCLE ( 'NONE', #253, 10.00000000000000000 ) ;
#171 = ORIENTED_EDGE ( 'NONE', *, *, #338, .T. ) ;
#172 = PLANE ( 'NONE',  #277 ) ;
#173 = MECHANICAL_CONTEXT ( 'NONE', #304, 'mechanical' ) ;
#174 = EDGE_CURVE ( 'NONE', #233, #184, #209, .T. ) ;
#175 = APPROVAL_DATE_TIME ( #257, #91 ) ;
#176 = LOCAL_TIME ( 7, 54, 26.00000000000000000, #206 ) ;
#177 = ORIENTED_EDGE ( 'NONE', *, *, #32, .F. ) ;
#178 = DIRECTION ( 'NONE',  ( -3.491481338843133355E-15, 1.224646799147353454E-16, -1.000000000000000000 ) ) ;
#179 = CARTESIAN_POINT ( 'NONE',  ( 0.000000000000000000, 0.000000000000000000, 0.000000000000000000 ) ) ;
#180 = APPROVAL ( #57, 'UNSPECIFIED' ) ;
#181 = APPROVAL_ROLE ( '' ) ;
#182 = SECURITY_CLASSIFICATION ( '', '', #70 ) ;
#183 = ORIENTED_EDGE ( 'NONE', *, *, #29, .T. ) ;
#184 = VERTEX_POINT ( 'NONE', #109 ) ;
#185 = DIRECTION ( 'NONE',  ( 0.000000000000000000, 1.000000000000000000, 0.000000000000000000 ) ) ;
#186 = LINE ( 'NONE', #350, #155 ) ;
#187 = LOCAL_TIME ( 7, 54, 26.00000000000000000, #288 ) ;
#188 = CARTESIAN_POINT ( 'NONE',  ( 3.596225779008427482E-13, -1.261386203121774077E-14, 103.0000000000000142 ) ) ;
#189 = ORIENTED_EDGE ( 'NONE', *, *, #99, .T. ) ;
#190 = APPROVAL_DATE_TIME ( #42, #205 ) ;
#191 = CC_DESIGN_PERSON_AND_ORGANIZATION_ASSIGNMENT ( #210, #322, ( #228 ) ) ;
#192 = DIRECTION ( 'NONE',  ( -3.491481338843133355E-15, 1.224646799147353454E-16, -1.000000000000000000 ) ) ;
#193 = EDGE_LOOP ( 'NONE', ( #330, #140 ) ) ;
#194 = ADVANCED_FACE ( 'NONE', ( #51 ), #172, .F. ) ;
#195 = VERTEX_POINT ( 'NONE', #362 ) ;
#196 = DIRECTION ( 'NONE',  ( -4.252335473556634944E-31, -1.000000000000000000, -1.217917285207545432E-16 ) ) ;
#197 = VECTOR ( 'NONE', #126, 1000.000000000000000 ) ;
#198 = DIRECTION ( 'NONE',  ( -3.491481338843133355E-15, 1.224646799147353454E-16, -1.000000000000000000 ) ) ;
#199 = ORIENTED_EDGE ( 'NONE', *, *, #174, .F. ) ;
#200 = CYLINDRICAL_SURFACE ( 'NONE', #43, 10.00000000000000000 ) ;
#201 = EDGE_LOOP ( 'NONE', ( #151, #23 ) ) ;
#202 = CALENDAR_DATE ( 2023, 3, 4 ) ;
#203 = PERSON_AND_ORGANIZATION ( #110, #343 ) ;
#204 = CIRCLE ( 'NONE', #158, 10.00000000000000000 ) ;
#205 = APPROVAL ( #68, 'UNSPECIFIED' ) ;
#206 = COORDINATED_UNIVERSAL_TIME_OFFSET ( 1, 0, .AHEAD. ) ;
#207 = ORIENTED_EDGE ( 'NONE', *, *, #308, .T. ) ;
#208 = ORIENTED_EDGE ( 'NONE', *, *, #226, .F. ) ;
#209 = CIRCLE ( 'NONE', #93, 9.799999999999998934 ) ;
#210 = PERSON_AND_ORGANIZATION ( #110, #343 ) ;
#211 = FACE_OUTER_BOUND ( 'NONE', #167, .T. ) ;
#212 = CARTESIAN_POINT ( 'NONE',  ( 2.508655625264313422E-13, -10.00000000000000533, 40.00000000000000000 ) ) ;
#213 = EDGE_CURVE ( 'NONE', #165, #352, #49, .T. ) ;
#214 = DATE_AND_TIME ( #133, #18 ) ;
#215 = ORIENTED_EDGE ( 'NONE', *, *, #270, .T. ) ;
#216 = CALENDAR_DATE ( 2023, 3, 4 ) ;
#217 = AXIS2_PLACEMENT_3D ( 'NONE', #188, #192, #46 ) ;
#218 = CARTESIAN_POINT ( 'NONE',  ( 7.017877491074699937E-14, 10.00000000000000000, 0.2000000000000002887 ) ) ;
#219 = CARTESIAN_POINT ( 'NONE',  ( 1.224646799147348918E-15, -10.00000000000000000, -1.224646799147357595E-15 ) ) ;
#220 = DIRECTION ( 'NONE',  ( 4.275831445896958607E-31, 1.000000000000000000, 1.224646799147353454E-16 ) ) ;
#221 = CIRCLE ( 'NONE', #223, 9.000000000000000000 ) ;
#222 = CARTESIAN_POINT ( 'NONE',  ( -4.167288764085502770E-30, 1.453656063335171267E-31, -1.193558939503394514E-15 ) ) ;
#223 = AXIS2_PLACEMENT_3D ( 'NONE', #295, #41, #185 ) ;
#224 = DIRECTION ( 'NONE',  ( 4.275831445896958607E-31, 1.000000000000000000, 1.224646799147353454E-16 ) ) ;
#225 = CARTESIAN_POINT ( 'NONE',  ( 3.608472246999900997E-13, -10.00000000000001243, 103.0000000000000142 ) ) ;
#226 = EDGE_CURVE ( 'NONE', #310, #16, #245, .T. ) ;
#227 = CARTESIAN_POINT ( 'NONE',  ( 3.596225779008427482E-13, -1.261386203121774077E-14, 103.0000000000000142 ) ) ;
#228 = PRODUCT_DEFINITION_FORMATION_WITH_SPECIFIED_SOURCE ( 'ANY', '', #63, .NOT_KNOWN. ) ;
#229 = CONICAL_SURFACE ( 'NONE', #73, 10.00000000000000000, 0.7853981633974489451 ) ;
#230 = APPROVAL_STATUS ( 'not_yet_approved' ) ;
#231 = ORIENTED_EDGE ( 'NONE', *, *, #338, .F. ) ;
#232 = APPROVAL_ROLE ( '' ) ;
#233 = VERTEX_POINT ( 'NONE', #301 ) ;
#234 = VECTOR ( 'NONE', #238, 1000.000000000000000 ) ;
#235 = ORIENTED_EDGE ( 'NONE', *, *, #128, .T. ) ;
#236 = EDGE_CURVE ( 'NONE', #74, #161, #327, .T. ) ;
#237 = PERSON_AND_ORGANIZATION ( #110, #343 ) ;
#238 = DIRECTION ( 'NONE',  ( 2.468850131082263766E-15, -0.7071067811865481278, 0.7071067811865470176 ) ) ;
#239 = ORIENTED_EDGE ( 'NONE', *, *, #9, .T. ) ;
#240 = DIRECTION ( 'NONE',  ( 0.000000000000000000, 1.000000000000000000, 0.000000000000000000 ) ) ;
#241 = DIRECTION ( 'NONE',  ( 0.000000000000000000, 1.000000000000000000, 0.000000000000000000 ) ) ;
#242 = CARTESIAN_POINT ( 'NONE',  ( 7.140342170989431299E-14, -10.00000000000000711, 40.00000000000000000 ) ) ;
#243 = CARTESIAN_POINT ( 'NONE',  ( 3.631140592396858689E-13, 6.748919021978343909E-32, 104.0000000000000000 ) ) ;
#244 = APPROVAL_PERSON_ORGANIZATION ( #237, #205, #232 ) ;
#245 = LINE ( 'NONE', #225, #113 ) ;
#246 = CIRCLE ( 'NONE', #13, 10.00000000000000000 ) ;
#247 = DIRECTION ( 'NONE',  ( 3.491481338843133355E-15, -1.217917285207545432E-16, 1.000000000000000000 ) ) ;
#248 = CC_DESIGN_PERSON_AND_ORGANIZATION_ASSIGNMENT ( #203, #34, ( #80 ) ) ;
#249 = DIRECTION ( 'NONE',  ( -3.491481338843133355E-15, 1.224646799147353454E-16, -1.000000000000000000 ) ) ;
#250 = ORIENTED_EDGE ( 'NONE', *, *, #67, .F. ) ;
#251 = EDGE_CURVE ( 'NONE', #285, #320, #170, .T. ) ;
#252 = CARTESIAN_POINT ( 'NONE',  ( 3.596225779008427482E-13, 9.999999999999987566, 103.0000000000000142 ) ) ;
#253 = AXIS2_PLACEMENT_3D ( 'NONE', #27, #163, #82 ) ;
#254 = DIRECTION ( 'NONE',  ( 0.000000000000000000, 1.000000000000000000, 0.000000000000000000 ) ) ;
#255 = ORIENTED_EDGE ( 'NONE', *, *, #251, .T. ) ;
#256 = PRODUCT_DEFINITION_SHAPE ( 'NONE', 'NONE',  #80 ) ;
#257 = DATE_AND_TIME ( #6, #144 ) ;
#258 = AXIS2_PLACEMENT_3D ( 'NONE', #20, #145, #305 ) ;
#259 = ORIENTED_EDGE ( 'NONE', *, *, #236, .F. ) ;
#260 = CYLINDRICAL_SURFACE ( 'NONE', #341, 10.00000000000000000 ) ;
#261 = PERSON_AND_ORGANIZATION ( #110, #343 ) ;
#262 = DIRECTION ( 'NONE',  ( 3.491481338843133355E-15, -1.217917285207545432E-16, 1.000000000000000000 ) ) ;
#263 = DATE_TIME_ROLE ( 'classification_date' ) ;
#264 = EDGE_LOOP ( 'NONE', ( #56, #189, #348, #231 ) ) ;
#265 = ORIENTED_EDGE ( 'NONE', *, *, #236, .T. ) ;
#266 = FACE_OUTER_BOUND ( 'NONE', #363, .T. ) ;
#267 = DIRECTION ( 'NONE',  ( 3.491481338843133355E-15, -1.217917285207545432E-16, 1.000000000000000000 ) ) ;
#268 = UNCERTAINTY_MEASURE_WITH_UNIT (LENGTH_MEASURE( 1.000000000000000082E-05 ), #281, 'distance_accuracy_value', 'NONE');
#269 = ORIENTED_EDGE ( 'NONE', *, *, #270, .F. ) ;
#270 = EDGE_CURVE ( 'NONE', #285, #195, #24, .T. ) ;
#271 = AXIS2_PLACEMENT_3D ( 'NONE', #52, #278, #141 ) ;
#272 = DIRECTION ( 'NONE',  ( -2.468850131082248383E-15, 0.7071067811865526798, -0.7071067811865424657 ) ) ;
#273 = LINE ( 'NONE', #307, #197 ) ;
#274 = ORIENTED_EDGE ( 'NONE', *, *, #361, .F. ) ;
#275 = CYLINDRICAL_SURFACE ( 'NONE', #26, 10.00000000000000000 ) ;
#276 = FACE_OUTER_BOUND ( 'NONE', #264, .T. ) ;
#277 = AXIS2_PLACEMENT_3D ( 'NONE', #243, #302, #334 ) ;
#278 = DIRECTION ( 'NONE',  ( -3.491481338843133355E-15, 1.224646799147353454E-16, -1.000000000000000000 ) ) ;
#279 = EDGE_CURVE ( 'NONE', #184, #233, #164, .T. ) ;
#280 = APPLICATION_CONTEXT ( 'configuration controlled 3d designs of mechanical parts and assemblies' ) ;
#281 =( LENGTH_UNIT ( ) NAMED_UNIT ( * ) SI_UNIT ( .MILLI., .METRE. ) );
#282 = CC_DESIGN_PERSON_AND_ORGANIZATION_ASSIGNMENT ( #104, #100, ( #228 ) ) ;
#283 = CLOSED_SHELL ( 'NONE', ( #95, #153, #137, #354, #3, #194 ) ) ;
#284 = AXIS2_PLACEMENT_3D ( 'NONE', #152, #178, #286 ) ;
#285 = VERTEX_POINT ( 'NONE', #242 ) ;
#286 = DIRECTION ( 'NONE',  ( 0.000000000000000000, 1.000000000000000000, 0.000000000000000000 ) ) ;
#287 = DIRECTION ( 'NONE',  ( 4.275831445896958607E-31, 1.000000000000000000, 1.224646799147353454E-16 ) ) ;
#288 = COORDINATED_UNIVERSAL_TIME_OFFSET ( 1, 0, .AHEAD. ) ;
#289 = CC_DESIGN_DATE_AND_TIME_ASSIGNMENT ( #214, #263, ( #182 ) ) ;
#290 = ORIENTED_EDGE ( 'NONE', *, *, #342, .F. ) ;
#291 = DIRECTION ( 'NONE',  ( 0.000000000000000000, 1.000000000000000000, 0.000000000000000000 ) ) ;
#292 = PLANE ( 'NONE',  #258 ) ;
#293 = VECTOR ( 'NONE', #314, 1000.000000000000000 ) ;
#294 = CIRCLE ( 'NONE', #61, 9.000000000000000000 ) ;
#295 = CARTESIAN_POINT ( 'NONE',  ( 3.631140592396858689E-13, -1.273632671113247592E-14, 104.0000000000000000 ) ) ;
#296 = ORIENTED_EDGE ( 'NONE', *, *, #279, .T. ) ;
#297 = CARTESIAN_POINT ( 'NONE',  ( -2.137915722948479478E-30, 7.498798913309291323E-32, -6.123233995736767268E-16 ) ) ;
#298 = DIRECTION ( 'NONE',  ( -4.252335473556634944E-31, -1.000000000000000000, -1.217917285207545432E-16 ) ) ;
#299 = ORIENTED_EDGE ( 'NONE', *, *, #213, .T. ) ;
#300 = CIRCLE ( 'NONE', #149, 10.00000000000000000 ) ;
#301 = CARTESIAN_POINT ( 'NONE',  ( -8.334577528171004140E-30, -9.799999999999998934, -2.387117879006789028E-15 ) ) ;
#302 = DIRECTION ( 'NONE',  ( -3.491481338843133355E-15, 1.224646799147353454E-16, -1.000000000000000000 ) ) ;
#303 = CARTESIAN_POINT ( 'NONE',  ( 6.982962677686234170E-16, -2.435834570415079525E-17, 0.1999999999999990674 ) ) ;
#304 = APPLICATION_CONTEXT ( 'configuration controlled 3d designs of mechanical parts and assemblies' ) ;
#305 = DIRECTION ( 'NONE',  ( -4.275831445896959482E-31, -1.000000000000000000, -1.224646799147353454E-16 ) ) ;
#306 = CONICAL_SURFACE ( 'NONE', #54, 10.00000000000000000, 0.7853981633974552734 ) ;
#307 = CARTESIAN_POINT ( 'NONE',  ( 4.275831445896958957E-30, 10.00000000000000000, 1.224646799147353454E-15 ) ) ;
#308 = EDGE_CURVE ( 'NONE', #195, #115, #50, .T. ) ;
#309 = FACE_OUTER_BOUND ( 'NONE', #59, .T. ) ;
#310 = VERTEX_POINT ( 'NONE', #112 ) ;
#311 = APPROVAL_ROLE ( '' ) ;
#312 = AXIS2_PLACEMENT_3D ( 'NONE', #227, #337, #254 ) ;
#313 = DIRECTION ( 'NONE',  ( 0.000000000000000000, 0.000000000000000000, 1.000000000000000000 ) ) ;
#314 = DIRECTION ( 'NONE',  ( -3.491481338843133355E-15, 1.224646799147353454E-16, -1.000000000000000000 ) ) ;
#315 = CC_DESIGN_PERSON_AND_ORGANIZATION_ASSIGNMENT ( #154, #336, ( #63 ) ) ;
#316 = LINE ( 'NONE', #65, #234 ) ;
#317 = EDGE_CURVE ( 'NONE', #16, #352, #300, .T. ) ;
#318 = DESIGN_CONTEXT ( 'detailed design', #280, 'design' ) ;
#319 = VECTOR ( 'NONE', #166, 1000.000000000000000 ) ;
#320 = VERTEX_POINT ( 'NONE', #353 ) ;
#321 = CARTESIAN_POINT ( 'NONE',  ( 2.508655625264312917E-13, -10.00000000000001421, 103.0000000000000142 ) ) ;
#322 = PERSON_AND_ORGANIZATION_ROLE ( 'design_supplier' ) ;
#323 = DIRECTION ( 'NONE',  ( -3.491481338843133355E-15, 1.224646799147353454E-16, -1.000000000000000000 ) ) ;
#324 = COORDINATED_UNIVERSAL_TIME_OFFSET ( 1, 0, .AHEAD. ) ;
#325 = FACE_OUTER_BOUND ( 'NONE', #193, .T. ) ;
#326 = EDGE_LOOP ( 'NONE', ( #208, #239, #299, #103 ) ) ;
#327 = CIRCLE ( 'NONE', #271, 10.00000000000000000 ) ;
#328 = CARTESIAN_POINT ( 'NONE',  ( 1.396592535537253342E-13, 7.498798913309283660E-32, 40.00000000000000000 ) ) ;
#329 = DIRECTION ( 'NONE',  ( 0.000000000000000000, 1.000000000000000000, 0.000000000000000000 ) ) ;
#330 = ORIENTED_EDGE ( 'NONE', *, *, #128, .F. ) ;
#331 = DIRECTION ( 'NONE',  ( 3.491481338843133355E-15, -1.217917285207545432E-16, 1.000000000000000000 ) ) ;
#332 = ORIENTED_EDGE ( 'NONE', *, *, #226, .T. ) ;
#333 = DIRECTION ( 'NONE',  ( -3.491481338843133355E-15, 1.224646799147353454E-16, -1.000000000000000000 ) ) ;
#334 = DIRECTION ( 'NONE',  ( 4.275831445896959482E-31, 1.000000000000000000, 1.224646799147353454E-16 ) ) ;
#335 = LINE ( 'NONE', #58, #293 ) ;
#336 = PERSON_AND_ORGANIZATION_ROLE ( 'design_owner' ) ;
#337 = DIRECTION ( 'NONE',  ( -3.491481338843133355E-15, 1.224646799147353454E-16, -1.000000000000000000 ) ) ;
#338 = EDGE_CURVE ( 'NONE', #352, #161, #273, .T. ) ;
#339 = LOCAL_TIME ( 7, 54, 26.00000000000000000, #324 ) ;
#340 = CALENDAR_DATE ( 2023, 3, 4 ) ;
#341 = AXIS2_PLACEMENT_3D ( 'NONE', #105, #48, #10 ) ;
#342 = EDGE_CURVE ( 'NONE', #352, #16, #33, .T. ) ;
#343 = ORGANIZATION ( 'UNSPECIFIED', 'UNSPECIFIED', '' ) ;
#344 = CC_DESIGN_APPROVAL ( #91, ( #80 ) ) ;
#345 = FACE_OUTER_BOUND ( 'NONE', #127, .T. ) ;
#346 = ORIENTED_EDGE ( 'NONE', *, *, #32, .T. ) ;
#347 = CARTESIAN_POINT ( 'NONE',  ( 6.982962677686234170E-16, -2.435834570415079525E-17, 0.1999999999999990674 ) ) ;
#348 = ORIENTED_EDGE ( 'NONE', *, *, #349, .F. ) ;
#349 = EDGE_CURVE ( 'NONE', #161, #74, #81, .T. ) ;
#350 = CARTESIAN_POINT ( 'NONE',  ( 1.224646799147348918E-15, -10.00000000000000000, -1.224646799147357595E-15 ) ) ;
#351 = PLANE ( 'NONE',  #120 ) ;
#352 = VERTEX_POINT ( 'NONE', #252 ) ;
#353 = CARTESIAN_POINT ( 'NONE',  ( 1.396592535537253342E-13, 9.999999999999994671, 40.00000000000000000 ) ) ;
#354 = ADVANCED_FACE ( 'NONE', ( #309 ), #200, .T. ) ;
#355 = ORIENTED_EDGE ( 'NONE', *, *, #29, .F. ) ;
#356 = AXIS2_PLACEMENT_3D ( 'NONE', #303, #79, #147 ) ;
#357 = MANIFOLD_SOLID_BREP ( 'Corps-Déplacer/Copier1[1]', #283 ) ;
#358 = CARTESIAN_POINT ( 'NONE',  ( -4.167288764085502770E-30, 1.453656063335171267E-31, -1.193558939503394514E-15 ) ) ;
#359 = ORIENTED_EDGE ( 'NONE', *, *, #308, .F. ) ;
#360 = DIRECTION ( 'NONE',  ( -4.237045877651918877E-31, -1.000000000000000000, -1.219727444046192488E-16 ) ) ;
#361 = EDGE_CURVE ( 'NONE', #320, #115, #335, .T. ) ;
#362 = CARTESIAN_POINT ( 'NONE',  ( 7.140342170989433823E-14, -10.00000000000000000, 0.1999999999999978462 ) ) ;
#363 = EDGE_LOOP ( 'NONE', ( #89, #332, #290, #35 ) ) ;
ENDSEC;
END-ISO-10303-21;
