ISO-10303-21;
HEADER;
FILE_DESCRIPTION (( 'STEP AP203' ),
    '1' );
FILE_NAME ('367652.step',
    '2023-04-03T05:54:26',
    ( '' ),
    ( '' ),
    'SwSTEP 2.0',
    'SolidWorks 2022',
    '' );
FILE_SCHEMA (( 'CONFIG_CONTROL_DESIGN' ));
ENDSEC;

DATA;
#1 = AXIS2_PLACEMENT_3D ( 'NONE', #339, #205, #235 ) ;
#2 = APPROVAL_ROLE ( '' ) ;
#3 = CARTESIAN_POINT ( 'NONE',  ( 1.256933281983528008E-13, -4.408728476930470856E-15, 36.00000000000000000 ) ) ;
#4 = SECURITY_CLASSIFICATION ( '', '', #131 ) ;
#5 = CARTESIAN_POINT ( 'NONE',  ( 9.797174393178792131E-16, -8.000000000000000000, -9.797174393178859184E-16 ) ) ;
#6 = ORIENTED_EDGE ( 'NONE', *, *, #34, .T. ) ;
#7 = ADVANCED_FACE ( 'NONE', ( #329 ), #12, .T. ) ;
#8 = DIRECTION ( 'NONE',  ( -3.491481338843133355E-15, 1.224646799147353207E-16, -1.000000000000000000 ) ) ;
#9 = AXIS2_PLACEMENT_3D ( 'NONE', #218, #325, #221 ) ;
#10 = UNCERTAINTY_MEASURE_WITH_UNIT (LENGTH_MEASURE( 1.000000000000000082E-05 ), #134, 'distance_accuracy_value', 'NONE');
#11 = EDGE_CURVE ( 'NONE', #155, #15, #28, .T. ) ;
#12 = CONICAL_SURFACE ( 'NONE', #30, 8.000000000000000000, 0.7853981633974479459 ) ;
#13 = LINE ( 'NONE', #120, #37 ) ;
#14 = CARTESIAN_POINT ( 'NONE',  ( 1.678013707086510617E-15, 8.000000000000000000, 0.2000000000000004274 ) ) ;
#15 = VERTEX_POINT ( 'NONE', #307 ) ;
#16 = EDGE_LOOP ( 'NONE', ( #303, #100, #270, #6 ) ) ;
#17 = ADVANCED_FACE ( 'NONE', ( #278 ), #168, .F. ) ;
#18 = DATE_TIME_ROLE ( 'classification_date' ) ;
#19 = AXIS2_PLACEMENT_3D ( 'NONE', #50, #135, #195 ) ;
#20 = APPROVAL_PERSON_ORGANIZATION ( #285, #96, #2 ) ;
#21 = CARTESIAN_POINT ( 'NONE',  ( 3.466363699847880960E-13, -8.000000000000012434, 99.00000000000000000 ) ) ;
#22 = CARTESIAN_POINT ( 'NONE',  ( 0.000000000000000000, 0.000000000000000000, 0.000000000000000000 ) ) ;
#23 = EDGE_CURVE ( 'NONE', #322, #74, #78, .T. ) ;
#24 = DIRECTION ( 'NONE',  ( -3.491481338843133355E-15, 1.224646799147353207E-16, -1.000000000000000000 ) ) ;
#25 = CARTESIAN_POINT ( 'NONE',  ( 1.256933281983528008E-13, 5.999039130647424958E-32, 36.00000000000000000 ) ) ;
#26 = APPROVAL_ROLE ( '' ) ;
#27 = DIRECTION ( 'NONE',  ( -2.382254525458717469E-15, -0.7071067811865471286, -0.7071067811865479058 ) ) ;
#28 = LINE ( 'NONE', #108, #254 ) ;
#29 = DIRECTION ( 'NONE',  ( 0.000000000000000000, 1.000000000000000000, 0.000000000000000000 ) ) ;
#30 = AXIS2_PLACEMENT_3D ( 'NONE', #198, #51, #281 ) ;
#31 = DIRECTION ( 'NONE',  ( 1.000000000000000000, 0.000000000000000000, 0.000000000000000000 ) ) ;
#32 = COORDINATED_UNIVERSAL_TIME_OFFSET ( 1, 0, .AHEAD. ) ;
#33 = CARTESIAN_POINT ( 'NONE',  ( 0.000000000000000000, 0.000000000000000000, 0.000000000000000000 ) ) ;
#34 = EDGE_CURVE ( 'NONE', #98, #74, #150, .T. ) ;
#35 = EDGE_LOOP ( 'NONE', ( #43, #350, #185, #338 ) ) ;
#36 = AXIS2_PLACEMENT_3D ( 'NONE', #182, #148, #342 ) ;
#37 = VECTOR ( 'NONE', #304, 1000.000000000000000 ) ;
#38 = CARTESIAN_POINT ( 'NONE',  ( 9.797174393178792131E-16, -8.000000000000000000, -9.797174393178859184E-16 ) ) ;
#39 = DIRECTION ( 'NONE',  ( 0.000000000000000000, 1.000000000000000000, 0.000000000000000000 ) ) ;
#40 = DIRECTION ( 'NONE',  ( 4.275831445896958607E-31, 1.000000000000000000, 1.224646799147353207E-16 ) ) ;
#41 = VERTEX_POINT ( 'NONE', #246 ) ;
#42 = PERSON_AND_ORGANIZATION ( #190, #323 ) ;
#43 = ORIENTED_EDGE ( 'NONE', *, *, #217, .T. ) ;
#44 = SHAPE_DEFINITION_REPRESENTATION ( #119, #154 ) ;
#45 = ADVANCED_FACE ( 'NONE', ( #305 ), #158, .T. ) ;
#46 = AXIS2_PLACEMENT_3D ( 'NONE', #233, #143, #176 ) ;
#47 = DIRECTION ( 'NONE',  ( -4.275831445896958607E-31, -1.000000000000000000, -1.224646799147353207E-16 ) ) ;
#48 = CARTESIAN_POINT ( 'NONE',  ( 3.456566525454702148E-13, 7.999999999999988454, 99.00000000000000000 ) ) ;
#49 = PRODUCT_RELATED_PRODUCT_CATEGORY ( 'detail', '', ( #152 ) ) ;
#50 = CARTESIAN_POINT ( 'NONE',  ( 3.456566525454702148E-13, -1.212400331155879702E-14, 99.00000000000000000 ) ) ;
#51 = DIRECTION ( 'NONE',  ( -3.491481338843133355E-15, 1.224646799147353207E-16, -1.000000000000000000 ) ) ;
#52 = APPLICATION_PROTOCOL_DEFINITION ( 'international standard', 'config_control_design', 1994, #231 ) ;
#53 = DIRECTION ( 'NONE',  ( -3.491481338843133355E-15, 1.224646799147353207E-16, -1.000000000000000000 ) ) ;
#54 = AXIS2_PLACEMENT_3D ( 'NONE', #3, #294, #290 ) ;
#55 = EDGE_LOOP ( 'NONE', ( #117, #222, #62, #237 ) ) ;
#56 = CONICAL_SURFACE ( 'NONE', #170, 8.000000000000000000, 0.7853981633974485010 ) ;
#57 = DATE_TIME_ROLE ( 'creation_date' ) ;
#58 = APPROVAL_PERSON_ORGANIZATION ( #42, #286, #77 ) ;
#59 = PERSON_AND_ORGANIZATION ( #190, #323 ) ;
#60 = CC_DESIGN_PERSON_AND_ORGANIZATION_ASSIGNMENT ( #287, #336, ( #295 ) ) ;
#61 = CARTESIAN_POINT ( 'NONE',  ( 1.256933281983528008E-13, -4.408728476930470856E-15, 36.00000000000000000 ) ) ;
#62 = ORIENTED_EDGE ( 'NONE', *, *, #23, .T. ) ;
#63 = FACE_OUTER_BOUND ( 'NONE', #247, .T. ) ;
#64 = CIRCLE ( 'NONE', #19, 8.000000000000000000 ) ;
#65 = AXIS2_PLACEMENT_3D ( 'NONE', #122, #114, #293 ) ;
#66 = DIRECTION ( 'NONE',  ( -3.491481338843133355E-15, 1.224646799147353207E-16, -1.000000000000000000 ) ) ;
#67 = CARTESIAN_POINT ( 'NONE',  ( -3.316821669374175431E-30, 1.156991560613707582E-31, -9.499754824618855260E-16 ) ) ;
#68 = MANIFOLD_SOLID_BREP ( 'Corps-Déplacer/Copier1[2]', #102 ) ;
#69 = CC_DESIGN_APPROVAL ( #96, ( #230 ) ) ;
#70 = ORIENTED_EDGE ( 'NONE', *, *, #223, .T. ) ;
#71 = EDGE_LOOP ( 'NONE', ( #97, #298 ) ) ;
#72 = COORDINATED_UNIVERSAL_TIME_OFFSET ( 1, 0, .AHEAD. ) ;
#73 = CIRCLE ( 'NONE', #54, 8.000000000000001776 ) ;
#74 = VERTEX_POINT ( 'NONE', #129 ) ;
#75 = ADVANCED_FACE ( 'NONE', ( #79 ), #199, .T. ) ;
#76 = DIRECTION ( 'NONE',  ( 3.491481338843133355E-15, -1.217917285207545432E-16, 1.000000000000000000 ) ) ;
#77 = APPROVAL_ROLE ( '' ) ;
#78 = LINE ( 'NONE', #355, #312 ) ;
#79 = FACE_OUTER_BOUND ( 'NONE', #147, .T. ) ;
#80 = ORIENTED_EDGE ( 'NONE', *, *, #194, .F. ) ;
#81 = CYLINDRICAL_SURFACE ( 'NONE', #9, 8.000000000000000000 ) ;
#82 = ADVANCED_FACE ( 'NONE', ( #249 ), #160, .T. ) ;
#83 = EDGE_LOOP ( 'NONE', ( #347, #213, #346, #250 ) ) ;
#84 = APPROVAL_STATUS ( 'not_yet_approved' ) ;
#85 = CIRCLE ( 'NONE', #159, 8.000000000000000000 ) ;
#86 =( GEOMETRIC_REPRESENTATION_CONTEXT ( 3 ) GLOBAL_UNCERTAINTY_ASSIGNED_CONTEXT ( ( #10 ) ) GLOBAL_UNIT_ASSIGNED_CONTEXT ( ( #134, #169, #313 ) ) REPRESENTATION_CONTEXT ( 'NONE', 'WORKASPACE' ) );
#87 = PERSON_AND_ORGANIZATION_ROLE ( 'design_owner' ) ;
#88 = ADVANCED_FACE ( 'NONE', ( #353 ), #56, .T. ) ;
#89 = DATE_AND_TIME ( #227, #165 ) ;
#90 = CARTESIAN_POINT ( 'NONE',  ( 6.982962677686246989E-16, -2.435834570415083839E-17, 0.1999999999999994282 ) ) ;
#91 = EDGE_LOOP ( 'NONE', ( #362, #239, #188, #124 ) ) ;
#92 = DIRECTION ( 'NONE',  ( -3.491481338843133355E-15, 1.224646799147353207E-16, -1.000000000000000000 ) ) ;
#93 = AXIS2_PLACEMENT_3D ( 'NONE', #103, #127, #164 ) ;
#94 = DIRECTION ( 'NONE',  ( 0.000000000000000000, 1.000000000000000000, 0.000000000000000000 ) ) ;
#95 = CARTESIAN_POINT ( 'NONE',  ( 1.256933281983528008E-13, -4.408728476930470856E-15, 36.00000000000000000 ) ) ;
#96 = APPROVAL ( #140, 'UNSPECIFIED' ) ;
#97 = ORIENTED_EDGE ( 'NONE', *, *, #273, .F. ) ;
#98 = VERTEX_POINT ( 'NONE', #274 ) ;
#99 = DATE_AND_TIME ( #186, #172 ) ;
#100 = ORIENTED_EDGE ( 'NONE', *, *, #136, .T. ) ;
#101 = DIRECTION ( 'NONE',  ( -4.212971753347078429E-31, -1.000000000000000000, -1.219727444046192488E-16 ) ) ;
#102 = CLOSED_SHELL ( 'NONE', ( #45, #145, #109, #82, #88, #208 ) ) ;
#103 = CARTESIAN_POINT ( 'NONE',  ( 6.982962677686246989E-16, -2.435834570415083839E-17, 0.1999999999999994282 ) ) ;
#104 = CARTESIAN_POINT ( 'NONE',  ( 3.456566525454702148E-13, -1.212400331155879702E-14, 99.00000000000000000 ) ) ;
#105 = ORIENTED_EDGE ( 'NONE', *, *, #352, .T. ) ;
#106 = PERSON_AND_ORGANIZATION_ROLE ( 'creator' ) ;
#107 = DIRECTION ( 'NONE',  ( 2.468850131082264949E-15, -0.7071067811865479058, 0.7071067811865472397 ) ) ;
#108 = CARTESIAN_POINT ( 'NONE',  ( 3.420665156717566885E-30, 8.000000000000000000, 9.797174393178825657E-16 ) ) ;
#109 = ADVANCED_FACE ( 'NONE', ( #128 ), #81, .T. ) ;
#110 = PERSON_AND_ORGANIZATION ( #190, #323 ) ;
#111 = AXIS2_PLACEMENT_3D ( 'NONE', #104, #53, #29 ) ;
#112 = EDGE_CURVE ( 'NONE', #175, #289, #216, .T. ) ;
#113 = COORDINATED_UNIVERSAL_TIME_OFFSET ( 1, 0, .AHEAD. ) ;
#114 = DIRECTION ( 'NONE',  ( -3.491481338843133355E-15, 1.224646799147353207E-16, -1.000000000000000000 ) ) ;
#115 = DIRECTION ( 'NONE',  ( -4.212971753347078429E-31, -1.000000000000000000, -1.219727444046192488E-16 ) ) ;
#116 = ADVANCED_FACE ( 'NONE', ( #330 ), #349, .T. ) ;
#117 = ORIENTED_EDGE ( 'NONE', *, *, #309, .F. ) ;
#118 = LINE ( 'NONE', #38, #257 ) ;
#119 = PRODUCT_DEFINITION_SHAPE ( 'NONE', 'NONE',  #295 ) ;
#120 = CARTESIAN_POINT ( 'NONE',  ( 3.420665156717566885E-30, 8.000000000000000000, 9.797174393178825657E-16 ) ) ;
#121 = CC_DESIGN_PERSON_AND_ORGANIZATION_ASSIGNMENT ( #110, #87, ( #152 ) ) ;
#122 = CARTESIAN_POINT ( 'NONE',  ( 3.456566525454702148E-13, -1.212400331155879702E-14, 99.00000000000000000 ) ) ;
#123 = ORIENTED_EDGE ( 'NONE', *, *, #223, .F. ) ;
#124 = ORIENTED_EDGE ( 'NONE', *, *, #162, .F. ) ;
#125 = AXIS2_PLACEMENT_3D ( 'NONE', #61, #344, #94 ) ;
#126 = CC_DESIGN_APPROVAL ( #310, ( #295 ) ) ;
#127 = DIRECTION ( 'NONE',  ( 3.491481338843133355E-15, -1.217917285207545432E-16, 1.000000000000000000 ) ) ;
#128 = FACE_OUTER_BOUND ( 'NONE', #16, .T. ) ;
#129 = CARTESIAN_POINT ( 'NONE',  ( 6.417552967237858860E-14, -8.000000000000000000, 0.1999999999999984568 ) ) ;
#130 = DIRECTION ( 'NONE',  ( 3.491481338843133355E-15, -1.224646799147353207E-16, 1.000000000000000000 ) ) ;
#131 = SECURITY_CLASSIFICATION_LEVEL ( 'unclassified' ) ;
#132 = LINE ( 'NONE', #48, #275 ) ;
#133 = ORIENTED_EDGE ( 'NONE', *, *, #292, .F. ) ;
#134 =( LENGTH_UNIT ( ) NAMED_UNIT ( * ) SI_UNIT ( .MILLI., .METRE. ) );
#135 = DIRECTION ( 'NONE',  ( -3.491481338843133355E-15, 1.224646799147353207E-16, -1.000000000000000000 ) ) ;
#136 = EDGE_CURVE ( 'NONE', #183, #296, #334, .T. ) ;
#137 = AXIS2_PLACEMENT_3D ( 'NONE', #242, #357, #302 ) ;
#138 = CC_DESIGN_SECURITY_CLASSIFICATION ( #4, ( #230 ) ) ;
#139 = APPLICATION_PROTOCOL_DEFINITION ( 'international standard', 'config_control_design', 1994, #361 ) ;
#140 = APPROVAL_STATUS ( 'not_yet_approved' ) ;
#141 = CIRCLE ( 'NONE', #210, 8.000000000000001776 ) ;
#142 = PERSON_AND_ORGANIZATION ( #190, #323 ) ;
#143 = DIRECTION ( 'NONE',  ( -3.491481338843133355E-15, 1.224646799147353207E-16, -1.000000000000000000 ) ) ;
#144 = DIRECTION ( 'NONE',  ( 0.000000000000000000, 1.000000000000000000, 0.000000000000000000 ) ) ;
#145 = ADVANCED_FACE ( 'NONE', ( #197 ), #283, .T. ) ;
#146 = AXIS2_PLACEMENT_3D ( 'NONE', #337, #288, #39 ) ;
#147 = EDGE_LOOP ( 'NONE', ( #80, #215, #166, #133 ) ) ;
#148 = DIRECTION ( 'NONE',  ( -3.491481338843133355E-15, 1.224646799147353207E-16, -1.000000000000000000 ) ) ;
#149 = CARTESIAN_POINT ( 'NONE',  ( 3.491481338843133355E-13, 6.999999999999987566, 100.0000000000000000 ) ) ;
#150 = CIRCLE ( 'NONE', #93, 8.000000000000000000 ) ;
#151 = EDGE_CURVE ( 'NONE', #289, #155, #64, .T. ) ;
#152 = PRODUCT ( '367652', '367652', '', ( #333 ) ) ;
#153 = CARTESIAN_POINT ( 'NONE',  ( 1.256933281983528008E-13, 7.999999999999996447, 36.00000000000000000 ) ) ;
#154 = ADVANCED_BREP_SHAPE_REPRESENTATION ( '367652', ( #196, #68, #351 ), #86 ) ;
#155 = VERTEX_POINT ( 'NONE', #279 ) ;
#156 = COORDINATED_UNIVERSAL_TIME_OFFSET ( 1, 0, .AHEAD. ) ;
#157 = ORIENTED_EDGE ( 'NONE', *, *, #136, .F. ) ;
#158 = CONICAL_SURFACE ( 'NONE', #189, 8.000000000000000000, 0.7853981633974485010 ) ;
#159 = AXIS2_PLACEMENT_3D ( 'NONE', #90, #261, #115 ) ;
#160 = PLANE ( 'NONE',  #137 ) ;
#161 = DIRECTION ( 'NONE',  ( -2.468850131082266527E-15, 0.7071067811865473507, -0.7071067811865477948 ) ) ;
#162 = EDGE_CURVE ( 'NONE', #321, #155, #132, .T. ) ;
#163 = EDGE_LOOP ( 'NONE', ( #184, #105, #297, #358 ) ) ;
#164 = DIRECTION ( 'NONE',  ( -4.212971753347078429E-31, -1.000000000000000000, -1.219727444046192488E-16 ) ) ;
#165 = LOCAL_TIME ( 7, 54, 26.00000000000000000, #113 ) ;
#166 = ORIENTED_EDGE ( 'NONE', *, *, #11, .T. ) ;
#167 = DIRECTION ( 'NONE',  ( 4.275831445896958607E-31, 1.000000000000000000, 1.224646799147353207E-16 ) ) ;
#168 = PLANE ( 'NONE',  #171 ) ;
#169 =( NAMED_UNIT ( * ) PLANE_ANGLE_UNIT ( ) SI_UNIT ( $, .RADIAN. ) );
#170 = AXIS2_PLACEMENT_3D ( 'NONE', #360, #276, #252 ) ;
#171 = AXIS2_PLACEMENT_3D ( 'NONE', #25, #130, #47 ) ;
#172 = LOCAL_TIME ( 7, 54, 26.00000000000000000, #72 ) ;
#173 = DIRECTION ( 'NONE',  ( 0.000000000000000000, 0.000000000000000000, 1.000000000000000000 ) ) ;
#174 = CARTESIAN_POINT ( 'NONE',  ( 2.366547078112293385E-13, -8.000000000000012434, 99.00000000000000000 ) ) ;
#175 = VERTEX_POINT ( 'NONE', #277 ) ;
#176 = DIRECTION ( 'NONE',  ( 4.275831445896958607E-31, 1.000000000000000000, 1.224646799147353207E-16 ) ) ;
#177 = AXIS2_PLACEMENT_3D ( 'NONE', #191, #299, #219 ) ;
#178 = APPROVAL_PERSON_ORGANIZATION ( #251, #310, #26 ) ;
#179 = EDGE_CURVE ( 'NONE', #74, #98, #85, .T. ) ;
#180 = DIRECTION ( 'NONE',  ( 3.491481338843133355E-15, -1.217917285207545432E-16, 1.000000000000000000 ) ) ;
#181 = CC_DESIGN_PERSON_AND_ORGANIZATION_ASSIGNMENT ( #326, #244, ( #4 ) ) ;
#182 = CARTESIAN_POINT ( 'NONE',  ( -1.710332578358783092E-30, 5.999039130647430431E-32, -4.898587196589412829E-16 ) ) ;
#183 = VERTEX_POINT ( 'NONE', #209 ) ;
#184 = ORIENTED_EDGE ( 'NONE', *, *, #112, .F. ) ;
#185 = ORIENTED_EDGE ( 'NONE', *, *, #179, .T. ) ;
#186 = CALENDAR_DATE ( 2023, 3, 4 ) ;
#187 = EDGE_CURVE ( 'NONE', #41, #322, #300, .T. ) ;
#188 = ORIENTED_EDGE ( 'NONE', *, *, #316, .F. ) ;
#189 = AXIS2_PLACEMENT_3D ( 'NONE', #327, #76, #101 ) ;
#190 = PERSON ( 'UNSPECIFIED', 'UNSPECIFIED', 'UNSPECIFIED', ('UNSPECIFIED'), ('UNSPECIFIED'), ('UNSPECIFIED') ) ;
#191 = CARTESIAN_POINT ( 'NONE',  ( 1.256933281983528008E-13, -4.408728476930470856E-15, 36.00000000000000000 ) ) ;
#192 = APPROVAL_DATE_TIME ( #99, #286 ) ;
#193 = AXIS2_PLACEMENT_3D ( 'NONE', #67, #180, #207 ) ;
#194 = EDGE_CURVE ( 'NONE', #289, #212, #314, .T. ) ;
#195 = DIRECTION ( 'NONE',  ( 0.000000000000000000, 1.000000000000000000, 0.000000000000000000 ) ) ;
#196 = MANIFOLD_SOLID_BREP ( 'Corps-Déplacer/Copier1[1]', #266 ) ;
#197 = FACE_OUTER_BOUND ( 'NONE', #35, .T. ) ;
#198 = CARTESIAN_POINT ( 'NONE',  ( 3.456566525454702148E-13, -1.212400331155879702E-14, 99.00000000000000000 ) ) ;
#199 = CYLINDRICAL_SURFACE ( 'NONE', #340, 8.000000000000000000 ) ;
#200 = AXIS2_PLACEMENT_3D ( 'NONE', #33, #260, #40 ) ;
#201 = CIRCLE ( 'NONE', #146, 7.000000000000000000 ) ;
#202 = ORIENTED_EDGE ( 'NONE', *, *, #217, .F. ) ;
#203 = DATE_AND_TIME ( #282, #262 ) ;
#204 = APPROVAL_DATE_TIME ( #89, #96 ) ;
#205 = DIRECTION ( 'NONE',  ( 3.491481338843133355E-15, -1.217917285207545432E-16, 1.000000000000000000 ) ) ;
#206 = ORIENTED_EDGE ( 'NONE', *, *, #194, .T. ) ;
#207 = DIRECTION ( 'NONE',  ( -4.252335473556634944E-31, -1.000000000000000000, -1.217917285207545679E-16 ) ) ;
#208 = ADVANCED_FACE ( 'NONE', ( #229 ), #317, .T. ) ;
#209 = CARTESIAN_POINT ( 'NONE',  ( 6.417552967237856336E-14, -8.000000000000007105, 36.00000000000000000 ) ) ;
#210 = AXIS2_PLACEMENT_3D ( 'NONE', #95, #8, #144 ) ;
#211 = PLANE ( 'NONE',  #46 ) ;
#212 = VERTEX_POINT ( 'NONE', #318 ) ;
#213 = ORIENTED_EDGE ( 'NONE', *, *, #309, .T. ) ;
#214 = VECTOR ( 'NONE', #264, 1000.000000000000000 ) ;
#215 = ORIENTED_EDGE ( 'NONE', *, *, #151, .T. ) ;
#216 = LINE ( 'NONE', #21, #265 ) ;
#217 = EDGE_CURVE ( 'NONE', #296, #183, #224, .T. ) ;
#218 = CARTESIAN_POINT ( 'NONE',  ( 0.000000000000000000, 0.000000000000000000, 0.000000000000000000 ) ) ;
#219 = DIRECTION ( 'NONE',  ( 0.000000000000000000, 1.000000000000000000, 0.000000000000000000 ) ) ;
#220 = EDGE_LOOP ( 'NONE', ( #70, #238 ) ) ;
#221 = DIRECTION ( 'NONE',  ( 4.275831445896958607E-31, 1.000000000000000000, 1.224646799147353207E-16 ) ) ;
#222 = ORIENTED_EDGE ( 'NONE', *, *, #187, .T. ) ;
#223 = EDGE_CURVE ( 'NONE', #15, #212, #141, .T. ) ;
#224 = CIRCLE ( 'NONE', #125, 8.000000000000001776 ) ;
#225 = CIRCLE ( 'NONE', #280, 7.000000000000000000 ) ;
#226 = COORDINATED_UNIVERSAL_TIME_OFFSET ( 1, 0, .AHEAD. ) ;
#227 = CALENDAR_DATE ( 2023, 3, 4 ) ;
#228 = CC_DESIGN_DATE_AND_TIME_ASSIGNMENT ( #311, #57, ( #295 ) ) ;
#229 = FACE_OUTER_BOUND ( 'NONE', #71, .T. ) ;
#230 = PRODUCT_DEFINITION_FORMATION_WITH_SPECIFIED_SOURCE ( 'ANY', '', #152, .NOT_KNOWN. ) ;
#231 = APPLICATION_CONTEXT ( 'configuration controlled 3d designs of mechanical parts and assemblies' ) ;
#232 = EDGE_LOOP ( 'NONE', ( #202, #157 ) ) ;
#233 = CARTESIAN_POINT ( 'NONE',  ( 3.491481338843133355E-13, 5.249159239316484111E-32, 100.0000000000000000 ) ) ;
#234 = FACE_OUTER_BOUND ( 'NONE', #263, .T. ) ;
#235 = DIRECTION ( 'NONE',  ( -4.252335473556634944E-31, -1.000000000000000000, -1.217917285207545679E-16 ) ) ;
#236 = APPROVAL_STATUS ( 'not_yet_approved' ) ;
#237 = ORIENTED_EDGE ( 'NONE', *, *, #34, .F. ) ;
#238 = ORIENTED_EDGE ( 'NONE', *, *, #292, .T. ) ;
#239 = ORIENTED_EDGE ( 'NONE', *, *, #112, .T. ) ;
#240 = VECTOR ( 'NONE', #92, 1000.000000000000000 ) ;
#241 = ADVANCED_FACE ( 'NONE', ( #63 ), #211, .F. ) ;
#242 = CARTESIAN_POINT ( 'NONE',  ( 1.256933281983528008E-13, 5.999039130647424958E-32, 36.00000000000000000 ) ) ;
#243 = CC_DESIGN_PERSON_AND_ORGANIZATION_ASSIGNMENT ( #59, #106, ( #230 ) ) ;
#244 = PERSON_AND_ORGANIZATION_ROLE ( 'classification_officer' ) ;
#245 = DIRECTION ( 'NONE',  ( -3.491481338843133355E-15, 1.224646799147353207E-16, -1.000000000000000000 ) ) ;
#246 = CARTESIAN_POINT ( 'NONE',  ( 1.316619105210726291E-15, 7.799999999999999822, -4.622231866529366047E-30 ) ) ;
#247 = EDGE_LOOP ( 'NONE', ( #271, #269 ) ) ;
#248 = DIRECTION ( 'NONE',  ( 0.000000000000000000, 1.000000000000000000, 0.000000000000000000 ) ) ;
#249 = FACE_OUTER_BOUND ( 'NONE', #232, .T. ) ;
#250 = ORIENTED_EDGE ( 'NONE', *, *, #23, .F. ) ;
#251 = PERSON_AND_ORGANIZATION ( #190, #323 ) ;
#252 = DIRECTION ( 'NONE',  ( -4.212971753347078429E-31, -1.000000000000000000, -1.219727444046192488E-16 ) ) ;
#253 = EDGE_CURVE ( 'NONE', #183, #74, #118, .T. ) ;
#254 = VECTOR ( 'NONE', #332, 1000.000000000000000 ) ;
#255 = CARTESIAN_POINT ( 'NONE',  ( 3.491481338843133355E-13, -1.224646799147353217E-14, 100.0000000000000000 ) ) ;
#256 = DESIGN_CONTEXT ( 'detailed design', #231, 'design' ) ;
#257 = VECTOR ( 'NONE', #66, 1000.000000000000000 ) ;
#258 = ADVANCED_FACE ( 'NONE', ( #234 ), #319, .T. ) ;
#259 = PERSON_AND_ORGANIZATION_ROLE ( 'design_supplier' ) ;
#260 = DIRECTION ( 'NONE',  ( -3.491481338843133355E-15, 1.224646799147353207E-16, -1.000000000000000000 ) ) ;
#261 = DIRECTION ( 'NONE',  ( 3.491481338843133355E-15, -1.217917285207545432E-16, 1.000000000000000000 ) ) ;
#262 = LOCAL_TIME ( 7, 54, 26.00000000000000000, #226 ) ;
#263 = EDGE_LOOP ( 'NONE', ( #324, #206, #123, #315 ) ) ;
#264 = DIRECTION ( 'NONE',  ( 2.555445736705814795E-15, 0.7071067811865475727, 0.7071067811865474617 ) ) ;
#265 = VECTOR ( 'NONE', #27, 1000.000000000000000 ) ;
#266 = CLOSED_SHELL ( 'NONE', ( #7, #258, #17, #75, #116, #241 ) ) ;
#267 = CARTESIAN_POINT ( 'NONE',  ( -6.633643338748350863E-30, -7.799999999999999822, -1.899950964923771052E-15 ) ) ;
#268 = LINE ( 'NONE', #14, #214 ) ;
#269 = ORIENTED_EDGE ( 'NONE', *, *, #352, .F. ) ;
#270 = ORIENTED_EDGE ( 'NONE', *, *, #331, .T. ) ;
#271 = ORIENTED_EDGE ( 'NONE', *, *, #320, .F. ) ;
#272 = DATE_AND_TIME ( #348, #341 ) ;
#273 = EDGE_CURVE ( 'NONE', #322, #41, #345, .T. ) ;
#274 = CARTESIAN_POINT ( 'NONE',  ( 6.319581223306073266E-14, 8.000000000000000000, 0.2000000000000004274 ) ) ;
#275 = VECTOR ( 'NONE', #161, 999.9999999999998863 ) ;
#276 = DIRECTION ( 'NONE',  ( 3.491481338843133355E-15, -1.217917285207545432E-16, 1.000000000000000000 ) ) ;
#277 = CARTESIAN_POINT ( 'NONE',  ( 3.483208783142523266E-13, -7.000000000000012434, 100.0000000000000000 ) ) ;
#278 = FACE_OUTER_BOUND ( 'NONE', #220, .T. ) ;
#279 = CARTESIAN_POINT ( 'NONE',  ( 3.456566525454702148E-13, 7.999999999999988454, 99.00000000000000000 ) ) ;
#280 = AXIS2_PLACEMENT_3D ( 'NONE', #255, #284, #248 ) ;
#281 = DIRECTION ( 'NONE',  ( 0.000000000000000000, 1.000000000000000000, 0.000000000000000000 ) ) ;
#282 = CALENDAR_DATE ( 2023, 3, 4 ) ;
#283 = CYLINDRICAL_SURFACE ( 'NONE', #291, 8.000000000000000000 ) ;
#284 = DIRECTION ( 'NONE',  ( -3.491481338843133355E-15, 1.224646799147353207E-16, -1.000000000000000000 ) ) ;
#285 = PERSON_AND_ORGANIZATION ( #190, #323 ) ;
#286 = APPROVAL ( #236, 'UNSPECIFIED' ) ;
#287 = PERSON_AND_ORGANIZATION ( #190, #323 ) ;
#288 = DIRECTION ( 'NONE',  ( -3.491481338843133355E-15, 1.224646799147353207E-16, -1.000000000000000000 ) ) ;
#289 = VERTEX_POINT ( 'NONE', #174 ) ;
#290 = DIRECTION ( 'NONE',  ( 0.000000000000000000, 1.000000000000000000, 0.000000000000000000 ) ) ;
#291 = AXIS2_PLACEMENT_3D ( 'NONE', #301, #245, #167 ) ;
#292 = EDGE_CURVE ( 'NONE', #212, #15, #73, .T. ) ;
#293 = DIRECTION ( 'NONE',  ( 0.000000000000000000, 1.000000000000000000, 0.000000000000000000 ) ) ;
#294 = DIRECTION ( 'NONE',  ( -3.491481338843133355E-15, 1.224646799147353207E-16, -1.000000000000000000 ) ) ;
#295 = PRODUCT_DEFINITION ( 'UNKNOWN', '', #230, #256 ) ;
#296 = VERTEX_POINT ( 'NONE', #153 ) ;
#297 = ORIENTED_EDGE ( 'NONE', *, *, #162, .T. ) ;
#298 = ORIENTED_EDGE ( 'NONE', *, *, #187, .F. ) ;
#299 = DIRECTION ( 'NONE',  ( -3.491481338843133355E-15, 1.224646799147353207E-16, -1.000000000000000000 ) ) ;
#300 = CIRCLE ( 'NONE', #1, 7.799999999999999822 ) ;
#301 = CARTESIAN_POINT ( 'NONE',  ( 0.000000000000000000, 0.000000000000000000, 0.000000000000000000 ) ) ;
#302 = DIRECTION ( 'NONE',  ( -4.275831445896958607E-31, -1.000000000000000000, -1.224646799147353207E-16 ) ) ;
#303 = ORIENTED_EDGE ( 'NONE', *, *, #253, .F. ) ;
#304 = DIRECTION ( 'NONE',  ( -3.491481338843133355E-15, 1.224646799147353207E-16, -1.000000000000000000 ) ) ;
#305 = FACE_OUTER_BOUND ( 'NONE', #83, .T. ) ;
#306 = CIRCLE ( 'NONE', #65, 8.000000000000000000 ) ;
#307 = CARTESIAN_POINT ( 'NONE',  ( 1.256933281983528008E-13, 7.999999999999996447, 36.00000000000000000 ) ) ;
#308 = CARTESIAN_POINT ( 'NONE',  ( 0.000000000000000000, 0.000000000000000000, 0.000000000000000000 ) ) ;
#309 = EDGE_CURVE ( 'NONE', #41, #98, #268, .T. ) ;
#310 = APPROVAL ( #84, 'UNSPECIFIED' ) ;
#311 = DATE_AND_TIME ( #363, #335 ) ;
#312 = VECTOR ( 'NONE', #107, 999.9999999999998863 ) ;
#313 =( NAMED_UNIT ( * ) SI_UNIT ( $, .STERADIAN. ) SOLID_ANGLE_UNIT ( ) );
#314 = LINE ( 'NONE', #5, #240 ) ;
#315 = ORIENTED_EDGE ( 'NONE', *, *, #11, .F. ) ;
#316 = EDGE_CURVE ( 'NONE', #155, #289, #306, .T. ) ;
#317 = PLANE ( 'NONE',  #36 ) ;
#318 = CARTESIAN_POINT ( 'NONE',  ( 2.366547078112293890E-13, -8.000000000000007105, 36.00000000000000000 ) ) ;
#319 = CYLINDRICAL_SURFACE ( 'NONE', #200, 8.000000000000000000 ) ;
#320 = EDGE_CURVE ( 'NONE', #321, #175, #201, .T. ) ;
#321 = VERTEX_POINT ( 'NONE', #149 ) ;
#322 = VERTEX_POINT ( 'NONE', #267 ) ;
#323 = ORGANIZATION ( 'UNSPECIFIED', 'UNSPECIFIED', '' ) ;
#324 = ORIENTED_EDGE ( 'NONE', *, *, #316, .T. ) ;
#325 = DIRECTION ( 'NONE',  ( -3.491481338843133355E-15, 1.224646799147353207E-16, -1.000000000000000000 ) ) ;
#326 = PERSON_AND_ORGANIZATION ( #190, #323 ) ;
#327 = CARTESIAN_POINT ( 'NONE',  ( 6.982962677686246989E-16, -2.435834570415083839E-17, 0.1999999999999994282 ) ) ;
#328 = DIRECTION ( 'NONE',  ( 4.275831445896958607E-31, 1.000000000000000000, 1.224646799147353207E-16 ) ) ;
#329 = FACE_OUTER_BOUND ( 'NONE', #91, .T. ) ;
#330 = FACE_OUTER_BOUND ( 'NONE', #163, .T. ) ;
#331 = EDGE_CURVE ( 'NONE', #296, #98, #13, .T. ) ;
#332 = DIRECTION ( 'NONE',  ( -3.491481338843133355E-15, 1.224646799147353207E-16, -1.000000000000000000 ) ) ;
#333 = MECHANICAL_CONTEXT ( 'NONE', #361, 'mechanical' ) ;
#334 = CIRCLE ( 'NONE', #177, 8.000000000000001776 ) ;
#335 = LOCAL_TIME ( 7, 54, 26.00000000000000000, #32 ) ;
#336 = PERSON_AND_ORGANIZATION_ROLE ( 'creator' ) ;
#337 = CARTESIAN_POINT ( 'NONE',  ( 3.491481338843133355E-13, -1.224646799147353217E-14, 100.0000000000000000 ) ) ;
#338 = ORIENTED_EDGE ( 'NONE', *, *, #331, .F. ) ;
#339 = CARTESIAN_POINT ( 'NONE',  ( -3.316821669374175431E-30, 1.156991560613707582E-31, -9.499754824618855260E-16 ) ) ;
#340 = AXIS2_PLACEMENT_3D ( 'NONE', #22, #24, #328 ) ;
#341 = LOCAL_TIME ( 7, 54, 26.00000000000000000, #156 ) ;
#342 = DIRECTION ( 'NONE',  ( 4.275831445896958607E-31, 1.000000000000000000, 1.224646799147353207E-16 ) ) ;
#343 = CC_DESIGN_PERSON_AND_ORGANIZATION_ASSIGNMENT ( #142, #259, ( #230 ) ) ;
#344 = DIRECTION ( 'NONE',  ( -3.491481338843133355E-15, 1.224646799147353207E-16, -1.000000000000000000 ) ) ;
#345 = CIRCLE ( 'NONE', #193, 7.799999999999999822 ) ;
#346 = ORIENTED_EDGE ( 'NONE', *, *, #179, .F. ) ;
#347 = ORIENTED_EDGE ( 'NONE', *, *, #273, .T. ) ;
#348 = CALENDAR_DATE ( 2023, 3, 4 ) ;
#349 = CONICAL_SURFACE ( 'NONE', #111, 8.000000000000000000, 0.7853981633974479459 ) ;
#350 = ORIENTED_EDGE ( 'NONE', *, *, #253, .T. ) ;
#351 = AXIS2_PLACEMENT_3D ( 'NONE', #308, #173, #31 ) ;
#352 = EDGE_CURVE ( 'NONE', #175, #321, #225, .T. ) ;
#353 = FACE_OUTER_BOUND ( 'NONE', #55, .T. ) ;
#354 = CC_DESIGN_APPROVAL ( #286, ( #4 ) ) ;
#355 = CARTESIAN_POINT ( 'NONE',  ( 6.982962677686213462E-16, -8.000000000000000000, 0.1999999999999984568 ) ) ;
#356 = CC_DESIGN_DATE_AND_TIME_ASSIGNMENT ( #272, #18, ( #4 ) ) ;
#357 = DIRECTION ( 'NONE',  ( 3.491481338843133355E-15, -1.224646799147353207E-16, 1.000000000000000000 ) ) ;
#358 = ORIENTED_EDGE ( 'NONE', *, *, #151, .F. ) ;
#359 = APPROVAL_DATE_TIME ( #203, #310 ) ;
#360 = CARTESIAN_POINT ( 'NONE',  ( 6.982962677686246989E-16, -2.435834570415083839E-17, 0.1999999999999994282 ) ) ;
#361 = APPLICATION_CONTEXT ( 'configuration controlled 3d designs of mechanical parts and assemblies' ) ;
#362 = ORIENTED_EDGE ( 'NONE', *, *, #320, .T. ) ;
#363 = CALENDAR_DATE ( 2023, 3, 4 ) ;
ENDSEC;
END-ISO-10303-21;
