ISO-10303-21;
HEADER;
FILE_DESCRIPTION (( 'STEP AP203' ),
    '1' );
FILE_NAME ('367451.step',
    '2023-04-03T06:01:21',
    ( '' ),
    ( '' ),
    'SwSTEP 2.0',
    'SolidWorks 2022',
    '' );
FILE_SCHEMA (( 'CONFIG_CONTROL_DESIGN' ));
ENDSEC;

DATA;
#1 = CARTESIAN_POINT ( 'NONE',  ( 1.251878519033861503E-13, -3.000000000000006661, 56.49999999999999289 ) ) ;
#2 = CYLINDRICAL_SURFACE ( 'NONE', #127, 3.000000000000000000 ) ;
#3 = DIRECTION ( 'NONE',  ( 4.275831445896959482E-31, 1.000000000000000000, 1.224646799147353207E-16 ) ) ;
#4 = VERTEX_POINT ( 'NONE', #113 ) ;
#5 = APPLICATION_PROTOCOL_DEFINITION ( 'international standard', 'config_control_design', 1994, #211 ) ;
#6 = CARTESIAN_POINT ( 'NONE',  ( 6.982962677686246989E-16, -2.435834570415083839E-17, 0.1999999999999994282 ) ) ;
#7 = CARTESIAN_POINT ( 'NONE',  ( 1.972686956446370283E-13, 2.999999999999992895, 56.49999999999999289 ) ) ;
#8 = EDGE_CURVE ( 'NONE', #4, #22, #323, .T. ) ;
#9 = CC_DESIGN_APPROVAL ( #44, ( #356 ) ) ;
#10 = AXIS2_PLACEMENT_3D ( 'NONE', #55, #226, #255 ) ;
#11 = CALENDAR_DATE ( 2023, 3, 4 ) ;
#12 = DIRECTION ( 'NONE',  ( -2.382254525458736402E-15, -0.7071067811865419106, -0.7071067811865531239 ) ) ;
#13 = PERSON_AND_ORGANIZATION ( #326, #49 ) ;
#14 = DIRECTION ( 'NONE',  ( -3.491481338843133355E-15, 1.224646799147353207E-16, -1.000000000000000000 ) ) ;
#15 = EDGE_CURVE ( 'NONE', #242, #29, #227, .T. ) ;
#16 = FACE_OUTER_BOUND ( 'NONE', #270, .T. ) ;
#17 = EDGE_CURVE ( 'NONE', #72, #129, #298, .T. ) ;
#18 = DATE_TIME_ROLE ( 'classification_date' ) ;
#19 = DATE_AND_TIME ( #92, #239 ) ;
#20 = AXIS2_PLACEMENT_3D ( 'NONE', #184, #52, #48 ) ;
#21 = EDGE_LOOP ( 'NONE', ( #301, #218, #274, #45 ) ) ;
#22 = VERTEX_POINT ( 'NONE', #257 ) ;
#23 = ORIENTED_EDGE ( 'NONE', *, *, #111, .F. ) ;
#24 = DIRECTION ( 'NONE',  ( -3.491481338843133355E-15, 1.224646799147353207E-16, -1.000000000000000000 ) ) ;
#25 = EDGE_CURVE ( 'NONE', #4, #129, #58, .T. ) ;
#26 = CARTESIAN_POINT ( 'NONE',  ( 1.065690307512831918E-15, 3.000000000000000000, 0.1999999999999997891 ) ) ;
#27 = ORIENTED_EDGE ( 'NONE', *, *, #8, .F. ) ;
#28 = AXIS2_PLACEMENT_3D ( 'NONE', #150, #287, #61 ) ;
#29 = VERTEX_POINT ( 'NONE', #1 ) ;
#30 = DIRECTION ( 'NONE',  ( -4.275831445896958607E-31, -1.000000000000000000, -1.224646799147353207E-16 ) ) ;
#31 = ORIENTED_EDGE ( 'NONE', *, *, #125, .F. ) ;
#32 = ADVANCED_FACE ( 'NONE', ( #54 ), #144, .T. ) ;
#33 = DIRECTION ( 'NONE',  ( 0.000000000000000000, 1.000000000000000000, 0.000000000000000000 ) ) ;
#34 = CARTESIAN_POINT ( 'NONE',  ( 1.972686956446370283E-13, -6.919254415182544548E-15, 56.49999999999999289 ) ) ;
#35 = DIRECTION ( 'NONE',  ( 4.275831445896959482E-31, 1.000000000000000000, 1.224646799147353207E-16 ) ) ;
#36 = DIRECTION ( 'NONE',  ( -3.491481338843133355E-15, 1.224646799147353207E-16, -1.000000000000000000 ) ) ;
#37 = FACE_OUTER_BOUND ( 'NONE', #73, .T. ) ;
#38 = APPROVAL ( #39, 'UNSPECIFIED' ) ;
#39 = APPROVAL_STATUS ( 'not_yet_approved' ) ;
#40 = DATE_AND_TIME ( #320, #98 ) ;
#41 = VECTOR ( 'NONE', #57, 1000.000000000000000 ) ;
#42 = EDGE_CURVE ( 'NONE', #29, #242, #240, .T. ) ;
#43 = EDGE_LOOP ( 'NONE', ( #247, #103 ) ) ;
#44 = APPROVAL ( #87, 'UNSPECIFIED' ) ;
#45 = ORIENTED_EDGE ( 'NONE', *, *, #17, .F. ) ;
#46 = ORIENTED_EDGE ( 'NONE', *, *, #325, .F. ) ;
#47 = APPROVAL_PERSON_ORGANIZATION ( #352, #38, #89 ) ;
#48 = DIRECTION ( 'NONE',  ( 0.000000000000000000, 1.000000000000000000, 0.000000000000000000 ) ) ;
#49 = ORGANIZATION ( 'UNSPECIFIED', 'UNSPECIFIED', '' ) ;
#50 = ORIENTED_EDGE ( 'NONE', *, *, #286, .T. ) ;
#51 = ORIENTED_EDGE ( 'NONE', *, *, #213, .T. ) ;
#52 = DIRECTION ( 'NONE',  ( -3.491481338843133355E-15, 1.224646799147353207E-16, -1.000000000000000000 ) ) ;
#53 = VECTOR ( 'NONE', #24, 1000.000000000000000 ) ;
#54 = FACE_OUTER_BOUND ( 'NONE', #329, .T. ) ;
#55 = CARTESIAN_POINT ( 'NONE',  ( 6.982962677686246989E-16, -2.435834570415083839E-17, 0.1999999999999994282 ) ) ;
#56 = DIRECTION ( 'NONE',  ( 0.000000000000000000, 1.000000000000000000, 0.000000000000000000 ) ) ;
#57 = DIRECTION ( 'NONE',  ( -3.491481338843133355E-15, 1.224646799147353207E-16, -1.000000000000000000 ) ) ;
#58 = LINE ( 'NONE', #277, #131 ) ;
#59 = COORDINATED_UNIVERSAL_TIME_OFFSET ( 1, 0, .AHEAD. ) ;
#60 = DIRECTION ( 'NONE',  ( 0.000000000000000000, 1.000000000000000000, 0.000000000000000000 ) ) ;
#61 = DIRECTION ( 'NONE',  ( -4.172848212839010723E-31, -1.000000000000000000, -1.174552353525963055E-16 ) ) ;
#62 = AXIS2_PLACEMENT_3D ( 'NONE', #310, #148, #33 ) ;
#63 = PERSON_AND_ORGANIZATION_ROLE ( 'design_owner' ) ;
#64 = PLANE ( 'NONE',  #317 ) ;
#65 = DIRECTION ( 'NONE',  ( -3.491481338843133355E-15, 1.224646799147353207E-16, -1.000000000000000000 ) ) ;
#66 = CALENDAR_DATE ( 2023, 3, 4 ) ;
#67 = AXIS2_PLACEMENT_3D ( 'NONE', #143, #36, #56 ) ;
#68 = LOCAL_TIME ( 8, 1, 21.00000000000000000, #126 ) ;
#69 = MANIFOLD_SOLID_BREP ( 'Corps-Déplacer/Copier1[1]', #308 ) ;
#70 = EDGE_CURVE ( 'NONE', #244, #330, #180, .T. ) ;
#71 = AXIS2_PLACEMENT_3D ( 'NONE', #224, #95, #35 ) ;
#72 = VERTEX_POINT ( 'NONE', #338 ) ;
#73 = EDGE_LOOP ( 'NONE', ( #23, #254, #104, #296 ) ) ;
#74 = APPROVAL_PERSON_ORGANIZATION ( #117, #44, #316 ) ;
#75 = CARTESIAN_POINT ( 'NONE',  ( 5.237222008264700033E-14, 2.249639673992783675E-32, 15.00000000000000000 ) ) ;
#76 = AXIS2_PLACEMENT_3D ( 'NONE', #6, #285, #228 ) ;
#77 = EDGE_LOOP ( 'NONE', ( #215, #130, #269, #299 ) ) ;
#78 = CARTESIAN_POINT ( 'NONE',  ( 1.990144363140586139E-13, 2.499999999999992895, 57.00000000000000000 ) ) ;
#79 = ORIENTED_EDGE ( 'NONE', *, *, #185, .T. ) ;
#80 = DIRECTION ( 'NONE',  ( 0.000000000000000000, 1.000000000000000000, 0.000000000000000000 ) ) ;
#81 = ADVANCED_FACE ( 'NONE', ( #318 ), #64, .F. ) ;
#82 = DIRECTION ( 'NONE',  ( -4.172848212839010723E-31, -1.000000000000000000, -1.174552353525963055E-16 ) ) ;
#83 = CARTESIAN_POINT ( 'NONE',  ( 1.282749433769087757E-30, 3.000000000000000000, 3.673940397442059868E-16 ) ) ;
#84 = CARTESIAN_POINT ( 'NONE',  ( -6.413747168845438786E-31, 2.249639673992786412E-32, -1.836970198721029934E-16 ) ) ;
#85 = AXIS2_PLACEMENT_3D ( 'NONE', #311, #167, #82 ) ;
#86 = DIRECTION ( 'NONE',  ( -4.252335473556634068E-31, -1.000000000000000000, -1.217917285207545432E-16 ) ) ;
#87 = APPROVAL_STATUS ( 'not_yet_approved' ) ;
#88 = CYLINDRICAL_SURFACE ( 'NONE', #276, 3.000000000000000000 ) ;
#89 = APPROVAL_ROLE ( '' ) ;
#90 = CARTESIAN_POINT ( 'NONE',  ( 5.237222008264700033E-14, 2.999999999999998224, 15.00000000000000000 ) ) ;
#91 = PRODUCT_RELATED_PRODUCT_CATEGORY ( 'detail', '', ( #181 ) ) ;
#92 = CALENDAR_DATE ( 2023, 3, 4 ) ;
#93 = CARTESIAN_POINT ( 'NONE',  ( 1.990144363140586139E-13, 1.874699728327311610E-32, 57.00000000000000000 ) ) ;
#94 = CIRCLE ( 'NONE', #327, 3.000000000000000000 ) ;
#95 = DIRECTION ( 'NONE',  ( -3.491481338843133355E-15, 1.224646799147353207E-16, -1.000000000000000000 ) ) ;
#96 = PERSON_AND_ORGANIZATION_ROLE ( 'creator' ) ;
#97 = ADVANCED_FACE ( 'NONE', ( #203 ), #289, .T. ) ;
#98 = LOCAL_TIME ( 8, 1, 21.00000000000000000, #200 ) ;
#99 = AXIS2_PLACEMENT_3D ( 'NONE', #34, #307, #199 ) ;
#100 = CONICAL_SURFACE ( 'NONE', #10, 3.000000000000000000, 0.7853981633974512766 ) ;
#101 = CC_DESIGN_PERSON_AND_ORGANIZATION_ASSIGNMENT ( #346, #266, ( #122 ) ) ;
#102 = EDGE_LOOP ( 'NONE', ( #27, #304 ) ) ;
#103 = ORIENTED_EDGE ( 'NONE', *, *, #251, .F. ) ;
#104 = ORIENTED_EDGE ( 'NONE', *, *, #204, .T. ) ;
#105 = FACE_OUTER_BOUND ( 'NONE', #132, .T. ) ;
#106 = EDGE_LOOP ( 'NONE', ( #46, #165 ) ) ;
#107 =( NAMED_UNIT ( * ) SI_UNIT ( $, .STERADIAN. ) SOLID_ANGLE_UNIT ( ) );
#108 = CARTESIAN_POINT ( 'NONE',  ( 0.000000000000000000, 0.000000000000000000, 0.000000000000000000 ) ) ;
#109 = EDGE_LOOP ( 'NONE', ( #142, #214, #51, #360 ) ) ;
#110 = LINE ( 'NONE', #26, #332 ) ;
#111 = EDGE_CURVE ( 'NONE', #330, #29, #232, .T. ) ;
#112 = CARTESIAN_POINT ( 'NONE',  ( 0.000000000000000000, 0.000000000000000000, 0.000000000000000000 ) ) ;
#113 = CARTESIAN_POINT ( 'NONE',  ( -2.381307865191714518E-30, -2.799999999999998934, -6.820336797162252252E-16 ) ) ;
#114 = CARTESIAN_POINT ( 'NONE',  ( 1.990144363140586139E-13, -6.980486755139912911E-15, 57.00000000000000000 ) ) ;
#115 = CIRCLE ( 'NONE', #62, 3.000000000000000000 ) ;
#116 =( GEOMETRIC_REPRESENTATION_CONTEXT ( 3 ) GLOBAL_UNCERTAINTY_ASSIGNED_CONTEXT ( ( #328 ) ) GLOBAL_UNIT_ASSIGNED_CONTEXT ( ( #278, #305, #107 ) ) REPRESENTATION_CONTEXT ( 'NONE', 'WORKASPACE' ) );
#117 = PERSON_AND_ORGANIZATION ( #326, #49 ) ;
#118 = CARTESIAN_POINT ( 'NONE',  ( 2.690265221495201894E-14, -3.000000000000000000, 0.1999999999999990952 ) ) ;
#119 = APPROVAL_STATUS ( 'not_yet_approved' ) ;
#120 = DIRECTION ( 'NONE',  ( -3.491481338843133355E-15, 1.224646799147353207E-16, -1.000000000000000000 ) ) ;
#121 = DIRECTION ( 'NONE',  ( 0.000000000000000000, 1.000000000000000000, 0.000000000000000000 ) ) ;
#122 = SECURITY_CLASSIFICATION ( '', '', #349 ) ;
#123 = CIRCLE ( 'NONE', #265, 3.000000000000000000 ) ;
#124 = APPLICATION_PROTOCOL_DEFINITION ( 'international standard', 'config_control_design', 1994, #193 ) ;
#125 = EDGE_CURVE ( 'NONE', #334, #129, #141, .T. ) ;
#126 = COORDINATED_UNIVERSAL_TIME_OFFSET ( 1, 0, .AHEAD. ) ;
#127 = AXIS2_PLACEMENT_3D ( 'NONE', #252, #137, #133 ) ;
#128 = PRODUCT_DEFINITION_SHAPE ( 'NONE', 'NONE',  #138 ) ;
#129 = VERTEX_POINT ( 'NONE', #118 ) ;
#130 = ORIENTED_EDGE ( 'NONE', *, *, #42, .T. ) ;
#131 = VECTOR ( 'NONE', #250, 1000.000000000000114 ) ;
#132 = EDGE_LOOP ( 'NONE', ( #79, #191 ) ) ;
#133 = DIRECTION ( 'NONE',  ( 4.275831445896959482E-31, 1.000000000000000000, 1.224646799147353207E-16 ) ) ;
#134 = EDGE_LOOP ( 'NONE', ( #194, #295, #280, #157 ) ) ;
#135 = DIRECTION ( 'NONE',  ( -3.491481338843133355E-15, 1.224646799147353207E-16, -1.000000000000000000 ) ) ;
#136 = ADVANCED_FACE ( 'NONE', ( #231 ), #152, .T. ) ;
#137 = DIRECTION ( 'NONE',  ( -3.491481338843133355E-15, 1.224646799147353207E-16, -1.000000000000000000 ) ) ;
#138 = PRODUCT_DEFINITION ( 'UNKNOWN', '', #356, #358 ) ;
#139 = ORIENTED_EDGE ( 'NONE', *, *, #185, .F. ) ;
#140 = CARTESIAN_POINT ( 'NONE',  ( 3.673940397442047049E-16, -3.000000000000000000, -3.673940397442072194E-16 ) ) ;
#141 = LINE ( 'NONE', #205, #156 ) ;
#142 = ORIENTED_EDGE ( 'NONE', *, *, #325, .T. ) ;
#143 = CARTESIAN_POINT ( 'NONE',  ( 1.972686956446370283E-13, -6.919254415182544548E-15, 56.49999999999999289 ) ) ;
#144 = CYLINDRICAL_SURFACE ( 'NONE', #71, 3.000000000000000000 ) ;
#145 = MECHANICAL_CONTEXT ( 'NONE', #211, 'mechanical' ) ;
#146 = CARTESIAN_POINT ( 'NONE',  ( 0.000000000000000000, 0.000000000000000000, 0.000000000000000000 ) ) ;
#147 = AXIS2_PLACEMENT_3D ( 'NONE', #84, #14, #259 ) ;
#148 = DIRECTION ( 'NONE',  ( -3.491481338843133355E-15, 1.224646799147353207E-16, -1.000000000000000000 ) ) ;
#149 = ADVANCED_FACE ( 'NONE', ( #37 ), #178, .T. ) ;
#150 = CARTESIAN_POINT ( 'NONE',  ( 6.982962677686246989E-16, -2.435834570415083839E-17, 0.1999999999999994282 ) ) ;
#151 = DATE_AND_TIME ( #66, #195 ) ;
#152 = CONICAL_SURFACE ( 'NONE', #28, 3.000000000000000000, 0.7853981633974512766 ) ;
#153 = DIRECTION ( 'NONE',  ( 1.000000000000000000, 0.000000000000000000, 0.000000000000000000 ) ) ;
#154 = CC_DESIGN_PERSON_AND_ORGANIZATION_ASSIGNMENT ( #288, #63, ( #181 ) ) ;
#155 = CC_DESIGN_APPROVAL ( #38, ( #122 ) ) ;
#156 = VECTOR ( 'NONE', #197, 1000.000000000000000 ) ;
#157 = ORIENTED_EDGE ( 'NONE', *, *, #204, .F. ) ;
#158 = EDGE_CURVE ( 'NONE', #334, #159, #115, .T. ) ;
#159 = VERTEX_POINT ( 'NONE', #261 ) ;
#160 = AXIS2_PLACEMENT_3D ( 'NONE', #273, #188, #272 ) ;
#161 = DIRECTION ( 'NONE',  ( -4.252335473556634068E-31, -1.000000000000000000, -1.217917285207545432E-16 ) ) ;
#162 = ORIENTED_EDGE ( 'NONE', *, *, #213, .F. ) ;
#163 = LINE ( 'NONE', #140, #53 ) ;
#164 = CC_DESIGN_DATE_AND_TIME_ASSIGNMENT ( #291, #258, ( #138 ) ) ;
#165 = ORIENTED_EDGE ( 'NONE', *, *, #158, .F. ) ;
#166 = LINE ( 'NONE', #83, #248 ) ;
#167 = DIRECTION ( 'NONE',  ( 3.491481338843133355E-15, -1.217917285207545432E-16, 1.000000000000000000 ) ) ;
#168 = CYLINDRICAL_SURFACE ( 'NONE', #342, 3.000000000000000000 ) ;
#169 = ORIENTED_EDGE ( 'NONE', *, *, #25, .F. ) ;
#170 = LINE ( 'NONE', #339, #41 ) ;
#171 = PERSON_AND_ORGANIZATION ( #326, #49 ) ;
#172 = CARTESIAN_POINT ( 'NONE',  ( 1.976360896843812085E-13, -3.000000000000006661, 56.49999999999999289 ) ) ;
#173 = VECTOR ( 'NONE', #256, 999.9999999999998863 ) ;
#174 = DIRECTION ( 'NONE',  ( -3.491481338843133355E-15, 1.224646799147353207E-16, -1.000000000000000000 ) ) ;
#175 = FACE_OUTER_BOUND ( 'NONE', #109, .T. ) ;
#176 = ADVANCED_FACE ( 'NONE', ( #175 ), #168, .T. ) ;
#177 = APPROVAL_DATE_TIME ( #151, #38 ) ;
#178 = CONICAL_SURFACE ( 'NONE', #236, 2.999999999999999556, 0.7853981633974405074 ) ;
#179 = AXIS2_PLACEMENT_3D ( 'NONE', #313, #120, #60 ) ;
#180 = CIRCLE ( 'NONE', #350, 2.500000000000000000 ) ;
#181 = PRODUCT ( '367451', '367451', '', ( #145 ) ) ;
#182 = ADVANCED_FACE ( 'NONE', ( #16 ), #88, .T. ) ;
#183 = ORIENTED_EDGE ( 'NONE', *, *, #303, .T. ) ;
#184 = CARTESIAN_POINT ( 'NONE',  ( 1.990144363140586139E-13, -6.980486755139912911E-15, 57.00000000000000000 ) ) ;
#185 = EDGE_CURVE ( 'NONE', #187, #222, #123, .T. ) ;
#186 = FACE_OUTER_BOUND ( 'NONE', #359, .T. ) ;
#187 = VERTEX_POINT ( 'NONE', #90 ) ;
#188 = DIRECTION ( 'NONE',  ( -3.491481338843133355E-15, 1.224646799147353207E-16, -1.000000000000000000 ) ) ;
#189 = CC_DESIGN_PERSON_AND_ORGANIZATION_ASSIGNMENT ( #171, #96, ( #138 ) ) ;
#190 = MANIFOLD_SOLID_BREP ( 'Corps-Déplacer/Copier1[2]', #212 ) ;
#191 = ORIENTED_EDGE ( 'NONE', *, *, #217, .T. ) ;
#192 = FACE_OUTER_BOUND ( 'NONE', #134, .T. ) ;
#193 = APPLICATION_CONTEXT ( 'configuration controlled 3d designs of mechanical parts and assemblies' ) ;
#194 = ORIENTED_EDGE ( 'NONE', *, *, #70, .T. ) ;
#195 = LOCAL_TIME ( 8, 1, 21.00000000000000000, #202 ) ;
#196 = CARTESIAN_POINT ( 'NONE',  ( 5.237222008264700033E-14, -1.836970198721029589E-15, 15.00000000000000000 ) ) ;
#197 = DIRECTION ( 'NONE',  ( -3.491481338843133355E-15, 1.224646799147353207E-16, -1.000000000000000000 ) ) ;
#198 = CIRCLE ( 'NONE', #179, 3.000000000000000000 ) ;
#199 = DIRECTION ( 'NONE',  ( 0.000000000000000000, 1.000000000000000000, 0.000000000000000000 ) ) ;
#200 = COORDINATED_UNIVERSAL_TIME_OFFSET ( 1, 0, .AHEAD. ) ;
#201 = DIRECTION ( 'NONE',  ( -3.491481338843133355E-15, 1.224646799147353207E-16, -1.000000000000000000 ) ) ;
#202 = COORDINATED_UNIVERSAL_TIME_OFFSET ( 1, 0, .AHEAD. ) ;
#203 = FACE_OUTER_BOUND ( 'NONE', #102, .T. ) ;
#204 = EDGE_CURVE ( 'NONE', #244, #242, #279, .T. ) ;
#205 = CARTESIAN_POINT ( 'NONE',  ( 3.673940397442047049E-16, -3.000000000000000000, -3.673940397442072194E-16 ) ) ;
#206 = CIRCLE ( 'NONE', #284, 2.799999999999998934 ) ;
#207 = ADVANCED_BREP_SHAPE_REPRESENTATION ( '367451', ( #69, #190, #260 ), #116 ) ;
#208 = DIRECTION ( 'NONE',  ( -3.491481338843133355E-15, 1.224646799147353207E-16, -1.000000000000000000 ) ) ;
#209 = CC_DESIGN_PERSON_AND_ORGANIZATION_ASSIGNMENT ( #283, #322, ( #356 ) ) ;
#210 = CALENDAR_DATE ( 2023, 3, 4 ) ;
#211 = APPLICATION_CONTEXT ( 'configuration controlled 3d designs of mechanical parts and assemblies' ) ;
#212 = CLOSED_SHELL ( 'NONE', ( #355, #176, #182, #306, #136, #97 ) ) ;
#213 = EDGE_CURVE ( 'NONE', #129, #72, #357, .T. ) ;
#214 = ORIENTED_EDGE ( 'NONE', *, *, #125, .T. ) ;
#215 = ORIENTED_EDGE ( 'NONE', *, *, #286, .F. ) ;
#216 = DIRECTION ( 'NONE',  ( 3.491481338843133355E-15, -1.217917285207545432E-16, 1.000000000000000000 ) ) ;
#217 = EDGE_CURVE ( 'NONE', #222, #187, #198, .T. ) ;
#218 = ORIENTED_EDGE ( 'NONE', *, *, #268, .T. ) ;
#219 = AXIS2_PLACEMENT_3D ( 'NONE', #249, #243, #30 ) ;
#220 = ORIENTED_EDGE ( 'NONE', *, *, #319, .T. ) ;
#221 = DIRECTION ( 'NONE',  ( -4.275831445896958607E-31, -1.000000000000000000, -1.224646799147353207E-16 ) ) ;
#222 = VERTEX_POINT ( 'NONE', #282 ) ;
#223 = PLANE ( 'NONE',  #219 ) ;
#224 = CARTESIAN_POINT ( 'NONE',  ( 0.000000000000000000, 0.000000000000000000, 0.000000000000000000 ) ) ;
#225 = ORIENTED_EDGE ( 'NONE', *, *, #15, .T. ) ;
#226 = DIRECTION ( 'NONE',  ( 3.491481338843133355E-15, -1.217917285207545432E-16, 1.000000000000000000 ) ) ;
#227 = CIRCLE ( 'NONE', #99, 2.999999999999999556 ) ;
#228 = DIRECTION ( 'NONE',  ( -4.172848212839010723E-31, -1.000000000000000000, -1.174552353525963055E-16 ) ) ;
#229 = APPROVAL_PERSON_ORGANIZATION ( #13, #238, #264 ) ;
#230 = PERSON_AND_ORGANIZATION ( #326, #49 ) ;
#231 = FACE_OUTER_BOUND ( 'NONE', #21, .T. ) ;
#232 = LINE ( 'NONE', #172, #267 ) ;
#233 = CARTESIAN_POINT ( 'NONE',  ( 1.972686956446370283E-13, 2.999999999999992895, 56.49999999999999289 ) ) ;
#234 = COORDINATED_UNIVERSAL_TIME_OFFSET ( 1, 0, .AHEAD. ) ;
#235 = APPROVAL_DATE_TIME ( #281, #238 ) ;
#236 = AXIS2_PLACEMENT_3D ( 'NONE', #263, #344, #253 ) ;
#237 = EDGE_CURVE ( 'NONE', #242, #187, #170, .T. ) ;
#238 = APPROVAL ( #119, 'UNSPECIFIED' ) ;
#239 = LOCAL_TIME ( 8, 1, 21.00000000000000000, #59 ) ;
#240 = CIRCLE ( 'NONE', #67, 2.999999999999999556 ) ;
#241 = ORIENTED_EDGE ( 'NONE', *, *, #237, .F. ) ;
#242 = VERTEX_POINT ( 'NONE', #7 ) ;
#243 = DIRECTION ( 'NONE',  ( 3.491481338843133355E-15, -1.224646799147353207E-16, 1.000000000000000000 ) ) ;
#244 = VERTEX_POINT ( 'NONE', #78 ) ;
#245 = CARTESIAN_POINT ( 'NONE',  ( 1.984783438491133490E-13, -2.500000000000007105, 57.00000000000000000 ) ) ;
#246 = CC_DESIGN_SECURITY_CLASSIFICATION ( #122, ( #356 ) ) ;
#247 = ORIENTED_EDGE ( 'NONE', *, *, #70, .F. ) ;
#248 = VECTOR ( 'NONE', #135, 1000.000000000000000 ) ;
#249 = CARTESIAN_POINT ( 'NONE',  ( 5.237222008264700033E-14, 2.249639673992783675E-32, 15.00000000000000000 ) ) ;
#250 = DIRECTION ( 'NONE',  ( 2.468850131082257455E-15, -0.7071067811865497932, 0.7071067811865453523 ) ) ;
#251 = EDGE_CURVE ( 'NONE', #330, #244, #362, .T. ) ;
#252 = CARTESIAN_POINT ( 'NONE',  ( 0.000000000000000000, 0.000000000000000000, 0.000000000000000000 ) ) ;
#253 = DIRECTION ( 'NONE',  ( 0.000000000000000000, 1.000000000000000000, 0.000000000000000000 ) ) ;
#254 = ORIENTED_EDGE ( 'NONE', *, *, #251, .T. ) ;
#255 = DIRECTION ( 'NONE',  ( -4.172848212839010723E-31, -1.000000000000000000, -1.174552353525963055E-16 ) ) ;
#256 = DIRECTION ( 'NONE',  ( -2.468850131082284276E-15, 0.7071067811865421326, -0.7071067811865530128 ) ) ;
#257 = CARTESIAN_POINT ( 'NONE',  ( 7.042957056370465076E-16, 2.799999999999998934, -2.455560679093725713E-30 ) ) ;
#258 = DATE_TIME_ROLE ( 'creation_date' ) ;
#259 = DIRECTION ( 'NONE',  ( 4.275831445896958607E-31, 1.000000000000000000, 1.224646799147353207E-16 ) ) ;
#260 = AXIS2_PLACEMENT_3D ( 'NONE', #108, #343, #153 ) ;
#261 = CARTESIAN_POINT ( 'NONE',  ( 5.237222008264700033E-14, 2.999999999999998224, 15.00000000000000000 ) ) ;
#262 = PERSON_AND_ORGANIZATION_ROLE ( 'creator' ) ;
#263 = CARTESIAN_POINT ( 'NONE',  ( 1.972686956446370283E-13, -6.919254415182544548E-15, 56.49999999999999289 ) ) ;
#264 = APPROVAL_ROLE ( '' ) ;
#265 = AXIS2_PLACEMENT_3D ( 'NONE', #315, #201, #121 ) ;
#266 = PERSON_AND_ORGANIZATION_ROLE ( 'classification_officer' ) ;
#267 = VECTOR ( 'NONE', #12, 1000.000000000000000 ) ;
#268 = EDGE_CURVE ( 'NONE', #22, #4, #206, .T. ) ;
#269 = ORIENTED_EDGE ( 'NONE', *, *, #237, .T. ) ;
#270 = EDGE_LOOP ( 'NONE', ( #31, #336, #220, #354 ) ) ;
#271 = CC_DESIGN_APPROVAL ( #238, ( #138 ) ) ;
#272 = DIRECTION ( 'NONE',  ( 0.000000000000000000, 1.000000000000000000, 0.000000000000000000 ) ) ;
#273 = CARTESIAN_POINT ( 'NONE',  ( 1.972686956446370283E-13, -6.919254415182544548E-15, 56.49999999999999289 ) ) ;
#274 = ORIENTED_EDGE ( 'NONE', *, *, #25, .T. ) ;
#275 = DIRECTION ( 'NONE',  ( 3.491481338843133355E-15, -1.217917285207545432E-16, 1.000000000000000000 ) ) ;
#276 = AXIS2_PLACEMENT_3D ( 'NONE', #112, #65, #351 ) ;
#277 = CARTESIAN_POINT ( 'NONE',  ( 6.982962677686235156E-16, -3.000000000000000000, 0.1999999999999990952 ) ) ;
#278 =( LENGTH_UNIT ( ) NAMED_UNIT ( * ) SI_UNIT ( .MILLI., .METRE. ) );
#279 = LINE ( 'NONE', #233, #173 ) ;
#280 = ORIENTED_EDGE ( 'NONE', *, *, #15, .F. ) ;
#281 = DATE_AND_TIME ( #210, #68 ) ;
#282 = CARTESIAN_POINT ( 'NONE',  ( 1.251878519033862008E-13, -3.000000000000001776, 15.00000000000000000 ) ) ;
#283 = PERSON_AND_ORGANIZATION ( #326, #49 ) ;
#284 = AXIS2_PLACEMENT_3D ( 'NONE', #331, #216, #161 ) ;
#285 = DIRECTION ( 'NONE',  ( 3.491481338843133355E-15, -1.217917285207545432E-16, 1.000000000000000000 ) ) ;
#286 = EDGE_CURVE ( 'NONE', #29, #222, #163, .T. ) ;
#287 = DIRECTION ( 'NONE',  ( 3.491481338843133355E-15, -1.217917285207545432E-16, 1.000000000000000000 ) ) ;
#288 = PERSON_AND_ORGANIZATION ( #326, #49 ) ;
#289 = PLANE ( 'NONE',  #147 ) ;
#290 = ADVANCED_FACE ( 'NONE', ( #192 ), #340, .T. ) ;
#291 = DATE_AND_TIME ( #11, #324 ) ;
#292 = AXIS2_PLACEMENT_3D ( 'NONE', #341, #275, #86 ) ;
#293 = ADVANCED_FACE ( 'NONE', ( #297 ), #2, .T. ) ;
#294 = AXIS2_PLACEMENT_3D ( 'NONE', #75, #300, #221 ) ;
#295 = ORIENTED_EDGE ( 'NONE', *, *, #111, .T. ) ;
#296 = ORIENTED_EDGE ( 'NONE', *, *, #42, .F. ) ;
#297 = FACE_OUTER_BOUND ( 'NONE', #77, .T. ) ;
#298 = CIRCLE ( 'NONE', #85, 3.000000000000000000 ) ;
#299 = ORIENTED_EDGE ( 'NONE', *, *, #217, .F. ) ;
#300 = DIRECTION ( 'NONE',  ( 3.491481338843133355E-15, -1.224646799147353207E-16, 1.000000000000000000 ) ) ;
#301 = ORIENTED_EDGE ( 'NONE', *, *, #303, .F. ) ;
#302 = DIRECTION ( 'NONE',  ( 2.555445736705807696E-15, 0.7071067811865495711, 0.7071067811865455743 ) ) ;
#303 = EDGE_CURVE ( 'NONE', #22, #72, #110, .T. ) ;
#304 = ORIENTED_EDGE ( 'NONE', *, *, #268, .F. ) ;
#305 =( NAMED_UNIT ( * ) PLANE_ANGLE_UNIT ( ) SI_UNIT ( $, .RADIAN. ) );
#306 = ADVANCED_FACE ( 'NONE', ( #337 ), #223, .T. ) ;
#307 = DIRECTION ( 'NONE',  ( -3.491481338843133355E-15, 1.224646799147353207E-16, -1.000000000000000000 ) ) ;
#308 = CLOSED_SHELL ( 'NONE', ( #290, #32, #345, #293, #149, #81 ) ) ;
#309 = DIRECTION ( 'NONE',  ( -3.491481338843133355E-15, 1.224646799147353207E-16, -1.000000000000000000 ) ) ;
#310 = CARTESIAN_POINT ( 'NONE',  ( 5.237222008264700033E-14, -1.836970198721029589E-15, 15.00000000000000000 ) ) ;
#311 = CARTESIAN_POINT ( 'NONE',  ( 6.982962677686246989E-16, -2.435834570415083839E-17, 0.1999999999999994282 ) ) ;
#312 = APPROVAL_DATE_TIME ( #40, #44 ) ;
#313 = CARTESIAN_POINT ( 'NONE',  ( 5.237222008264700033E-14, -1.836970198721029589E-15, 15.00000000000000000 ) ) ;
#314 = SHAPE_DEFINITION_REPRESENTATION ( #128, #207 ) ;
#315 = CARTESIAN_POINT ( 'NONE',  ( 5.237222008264700033E-14, -1.836970198721029589E-15, 15.00000000000000000 ) ) ;
#316 = APPROVAL_ROLE ( '' ) ;
#317 = AXIS2_PLACEMENT_3D ( 'NONE', #93, #174, #321 ) ;
#318 = FACE_OUTER_BOUND ( 'NONE', #43, .T. ) ;
#319 = EDGE_CURVE ( 'NONE', #159, #72, #166, .T. ) ;
#320 = CALENDAR_DATE ( 2023, 3, 4 ) ;
#321 = DIRECTION ( 'NONE',  ( 4.275831445896958607E-31, 1.000000000000000000, 1.224646799147353207E-16 ) ) ;
#322 = PERSON_AND_ORGANIZATION_ROLE ( 'design_supplier' ) ;
#323 = CIRCLE ( 'NONE', #292, 2.799999999999998934 ) ;
#324 = LOCAL_TIME ( 8, 1, 21.00000000000000000, #234 ) ;
#325 = EDGE_CURVE ( 'NONE', #159, #334, #94, .T. ) ;
#326 = PERSON ( 'UNSPECIFIED', 'UNSPECIFIED', 'UNSPECIFIED', ('UNSPECIFIED'), ('UNSPECIFIED'), ('UNSPECIFIED') ) ;
#327 = AXIS2_PLACEMENT_3D ( 'NONE', #196, #309, #80 ) ;
#328 = UNCERTAINTY_MEASURE_WITH_UNIT (LENGTH_MEASURE( 1.000000000000000082E-05 ), #278, 'distance_accuracy_value', 'NONE');
#329 = EDGE_LOOP ( 'NONE', ( #225, #50, #139, #241 ) ) ;
#330 = VERTEX_POINT ( 'NONE', #245 ) ;
#331 = CARTESIAN_POINT ( 'NONE',  ( -1.190653932595857434E-30, 4.153303038100488083E-32, -3.410168398581126126E-16 ) ) ;
#332 = VECTOR ( 'NONE', #302, 1000.000000000000114 ) ;
#333 = ORIENTED_EDGE ( 'NONE', *, *, #8, .T. ) ;
#334 = VERTEX_POINT ( 'NONE', #361 ) ;
#335 = PLANE ( 'NONE',  #294 ) ;
#336 = ORIENTED_EDGE ( 'NONE', *, *, #158, .T. ) ;
#337 = FACE_OUTER_BOUND ( 'NONE', #106, .T. ) ;
#338 = CARTESIAN_POINT ( 'NONE',  ( 2.653525817520781981E-14, 3.000000000000000000, 0.1999999999999997891 ) ) ;
#339 = CARTESIAN_POINT ( 'NONE',  ( 1.282749433769087757E-30, 3.000000000000000000, 3.673940397442059868E-16 ) ) ;
#340 = CONICAL_SURFACE ( 'NONE', #160, 2.999999999999999556, 0.7853981633974405074 ) ;
#341 = CARTESIAN_POINT ( 'NONE',  ( -1.190653932595857434E-30, 4.153303038100488083E-32, -3.410168398581126126E-16 ) ) ;
#342 = AXIS2_PLACEMENT_3D ( 'NONE', #146, #347, #3 ) ;
#343 = DIRECTION ( 'NONE',  ( 0.000000000000000000, 0.000000000000000000, 1.000000000000000000 ) ) ;
#344 = DIRECTION ( 'NONE',  ( -3.491481338843133355E-15, 1.224646799147353207E-16, -1.000000000000000000 ) ) ;
#345 = ADVANCED_FACE ( 'NONE', ( #105 ), #335, .F. ) ;
#346 = PERSON_AND_ORGANIZATION ( #326, #49 ) ;
#347 = DIRECTION ( 'NONE',  ( -3.491481338843133355E-15, 1.224646799147353207E-16, -1.000000000000000000 ) ) ;
#348 = DIRECTION ( 'NONE',  ( 0.000000000000000000, 1.000000000000000000, 0.000000000000000000 ) ) ;
#349 = SECURITY_CLASSIFICATION_LEVEL ( 'unclassified' ) ;
#350 = AXIS2_PLACEMENT_3D ( 'NONE', #114, #208, #348 ) ;
#351 = DIRECTION ( 'NONE',  ( 4.275831445896959482E-31, 1.000000000000000000, 1.224646799147353207E-16 ) ) ;
#352 = PERSON_AND_ORGANIZATION ( #326, #49 ) ;
#353 = CC_DESIGN_PERSON_AND_ORGANIZATION_ASSIGNMENT ( #230, #262, ( #356 ) ) ;
#354 = ORIENTED_EDGE ( 'NONE', *, *, #17, .T. ) ;
#355 = ADVANCED_FACE ( 'NONE', ( #186 ), #100, .T. ) ;
#356 = PRODUCT_DEFINITION_FORMATION_WITH_SPECIFIED_SOURCE ( 'ANY', '', #181, .NOT_KNOWN. ) ;
#357 = CIRCLE ( 'NONE', #76, 3.000000000000000000 ) ;
#358 = DESIGN_CONTEXT ( 'detailed design', #193, 'design' ) ;
#359 = EDGE_LOOP ( 'NONE', ( #333, #183, #162, #169 ) ) ;
#360 = ORIENTED_EDGE ( 'NONE', *, *, #319, .F. ) ;
#361 = CARTESIAN_POINT ( 'NONE',  ( 2.690265221495201263E-14, -3.000000000000001776, 15.00000000000000000 ) ) ;
#362 = CIRCLE ( 'NONE', #20, 2.500000000000000000 ) ;
#363 = CC_DESIGN_DATE_AND_TIME_ASSIGNMENT ( #19, #18, ( #122 ) ) ;
ENDSEC;
END-ISO-10303-21;
