ISO-10303-21;
HEADER;
FILE_DESCRIPTION (( 'STEP AP203' ),
    '1' );
FILE_NAME ('367649.step',
    '2023-04-03T06:01:22',
    ( '' ),
    ( '' ),
    'SwSTEP 2.0',
    'SolidWorks 2022',
    '' );
FILE_SCHEMA (( 'CONFIG_CONTROL_DESIGN' ));
ENDSEC;

DATA;
#1 = APPROVAL_DATE_TIME ( #311, #4 ) ;
#2 = APPROVAL_PERSON_ORGANIZATION ( #14, #349, #125 ) ;
#3 = APPLICATION_PROTOCOL_DEFINITION ( 'international standard', 'config_control_design', 1994, #319 ) ;
#4 = APPROVAL ( #53, 'UNSPECIFIED' ) ;
#5 = CARTESIAN_POINT ( 'NONE',  ( 3.631140592396858689E-13, -1.273632671113247592E-14, 104.0000000000000000 ) ) ;
#6 = CARTESIAN_POINT ( 'NONE',  ( 0.000000000000000000, 0.000000000000000000, 0.000000000000000000 ) ) ;
#7 = DIRECTION ( 'NONE',  ( -2.382254525458721019E-15, -0.7071067811865462405, -0.7071067811865489050 ) ) ;
#8 = CARTESIAN_POINT ( 'NONE',  ( -8.334577528171004140E-30, -9.799999999999998934, -2.387117879006789028E-15 ) ) ;
#9 = APPROVAL_STATUS ( 'not_yet_approved' ) ;
#10 = EDGE_CURVE ( 'NONE', #266, #274, #276, .T. ) ;
#11 = CARTESIAN_POINT ( 'NONE',  ( 1.396592535537253342E-13, 9.999999999999994671, 40.00000000000000000 ) ) ;
#12 = DIRECTION ( 'NONE',  ( 2.555445736705814795E-15, 0.7071067811865474617, 0.7071067811865475727 ) ) ;
#13 = AXIS2_PLACEMENT_3D ( 'NONE', #303, #221, #152 ) ;
#14 = PERSON_AND_ORGANIZATION ( #119, #275 ) ;
#15 = DIRECTION ( 'NONE',  ( 3.491481338843133355E-15, -1.217917285207545432E-16, 1.000000000000000000 ) ) ;
#16 = DIRECTION ( 'NONE',  ( 0.000000000000000000, 1.000000000000000000, 0.000000000000000000 ) ) ;
#17 = VERTEX_POINT ( 'NONE', #273 ) ;
#18 = AXIS2_PLACEMENT_3D ( 'NONE', #178, #198, #29 ) ;
#19 = EDGE_CURVE ( 'NONE', #17, #266, #21, .T. ) ;
#20 = DIRECTION ( 'NONE',  ( 0.000000000000000000, 1.000000000000000000, 0.000000000000000000 ) ) ;
#21 = CIRCLE ( 'NONE', #305, 9.999999999999996447 ) ;
#22 = DIRECTION ( 'NONE',  ( -3.491481338843133355E-15, 1.224646799147353454E-16, -1.000000000000000000 ) ) ;
#23 = ORIENTED_EDGE ( 'NONE', *, *, #162, .F. ) ;
#24 = DIRECTION ( 'NONE',  ( -3.491481338843133355E-15, 1.224646799147353454E-16, -1.000000000000000000 ) ) ;
#25 = SHAPE_DEFINITION_REPRESENTATION ( #75, #73 ) ;
#26 = AXIS2_PLACEMENT_3D ( 'NONE', #356, #270, #97 ) ;
#27 = PERSON_AND_ORGANIZATION ( #119, #275 ) ;
#28 = CALENDAR_DATE ( 2023, 3, 4 ) ;
#29 = DIRECTION ( 'NONE',  ( -4.237045877651918877E-31, -1.000000000000000000, -1.219727444046192488E-16 ) ) ;
#30 = DATE_AND_TIME ( #85, #137 ) ;
#31 = CONICAL_SURFACE ( 'NONE', #101, 9.999999999999996447, 0.7853981633974466137 ) ;
#32 = CC_DESIGN_PERSON_AND_ORGANIZATION_ASSIGNMENT ( #87, #251, ( #224 ) ) ;
#33 = ADVANCED_FACE ( 'NONE', ( #241 ), #174, .T. ) ;
#34 = AXIS2_PLACEMENT_3D ( 'NONE', #6, #225, #84 ) ;
#35 = AXIS2_PLACEMENT_3D ( 'NONE', #167, #346, #326 ) ;
#36 = CARTESIAN_POINT ( 'NONE',  ( 1.224646799147348721E-15, -9.999999999999998224, -1.224646799147357398E-15 ) ) ;
#37 = DIRECTION ( 'NONE',  ( -3.491481338843133355E-15, 1.224646799147353454E-16, -1.000000000000000000 ) ) ;
#38 = FACE_OUTER_BOUND ( 'NONE', #140, .T. ) ;
#39 = DIRECTION ( 'NONE',  ( -3.491481338843133355E-15, 1.224646799147353454E-16, -1.000000000000000000 ) ) ;
#40 = DIRECTION ( 'NONE',  ( -3.491481338843133355E-15, 1.224646799147353454E-16, -1.000000000000000000 ) ) ;
#41 = VERTEX_POINT ( 'NONE', #338 ) ;
#42 = CARTESIAN_POINT ( 'NONE',  ( 2.508655625264313422E-13, -10.00000000000000533, 40.00000000000000000 ) ) ;
#43 = DIRECTION ( 'NONE',  ( -3.491481338843133355E-15, 1.224646799147353454E-16, -1.000000000000000000 ) ) ;
#44 = DIRECTION ( 'NONE',  ( 4.275831445896959482E-31, 1.000000000000000000, 1.224646799147353454E-16 ) ) ;
#45 = CIRCLE ( 'NONE', #18, 10.00000000000000000 ) ;
#46 = VERTEX_POINT ( 'NONE', #250 ) ;
#47 = ORIENTED_EDGE ( 'NONE', *, *, #215, .F. ) ;
#48 = ORIENTED_EDGE ( 'NONE', *, *, #316, .T. ) ;
#49 = VECTOR ( 'NONE', #7, 1000.000000000000000 ) ;
#50 = ORIENTED_EDGE ( 'NONE', *, *, #162, .T. ) ;
#51 = APPLICATION_PROTOCOL_DEFINITION ( 'international standard', 'config_control_design', 1994, #121 ) ;
#52 = PRODUCT_RELATED_PRODUCT_CATEGORY ( 'detail', '', ( #100 ) ) ;
#53 = APPROVAL_STATUS ( 'not_yet_approved' ) ;
#54 = CIRCLE ( 'NONE', #263, 9.000000000000000000 ) ;
#55 = EDGE_CURVE ( 'NONE', #194, #142, #104, .T. ) ;
#56 = CALENDAR_DATE ( 2023, 3, 4 ) ;
#57 = CARTESIAN_POINT ( 'NONE',  ( 1.396592535537253342E-13, -4.898587196589413815E-15, 40.00000000000000000 ) ) ;
#58 = CIRCLE ( 'NONE', #245, 10.00000000000000000 ) ;
#59 = DIRECTION ( 'NONE',  ( -3.491481338843133355E-15, 1.224646799147353454E-16, -1.000000000000000000 ) ) ;
#60 = CC_DESIGN_DATE_AND_TIME_ASSIGNMENT ( #197, #255, ( #224 ) ) ;
#61 = DIRECTION ( 'NONE',  ( 0.000000000000000000, 1.000000000000000000, 0.000000000000000000 ) ) ;
#62 = LINE ( 'NONE', #182, #110 ) ;
#63 = ORIENTED_EDGE ( 'NONE', *, *, #278, .F. ) ;
#64 =( LENGTH_UNIT ( ) NAMED_UNIT ( * ) SI_UNIT ( .MILLI., .METRE. ) );
#65 = DIRECTION ( 'NONE',  ( 0.000000000000000000, 1.000000000000000000, 0.000000000000000000 ) ) ;
#66 = EDGE_LOOP ( 'NONE', ( #331, #171, #301, #79 ) ) ;
#67 = MANIFOLD_SOLID_BREP ( 'Corps-Déplacer/Copier1[1]', #181 ) ;
#68 = ORIENTED_EDGE ( 'NONE', *, *, #19, .T. ) ;
#69 = LINE ( 'NONE', #189, #49 ) ;
#70 = ADVANCED_FACE ( 'NONE', ( #145 ), #317, .T. ) ;
#71 = EDGE_LOOP ( 'NONE', ( #209, #112 ) ) ;
#72 = CARTESIAN_POINT ( 'NONE',  ( 3.596225779008426977E-13, -1.261386203121773919E-14, 103.0000000000000000 ) ) ;
#73 = ADVANCED_BREP_SHAPE_REPRESENTATION ( '367649', ( #67, #196, #13 ), #227 ) ;
#74 = CYLINDRICAL_SURFACE ( 'NONE', #148, 9.999999999999998224 ) ;
#75 = PRODUCT_DEFINITION_SHAPE ( 'NONE', 'NONE',  #224 ) ;
#76 = DIRECTION ( 'NONE',  ( -4.237045877651918877E-31, -1.000000000000000000, -1.219727444046192488E-16 ) ) ;
#77 = DIRECTION ( 'NONE',  ( -3.491481338843133355E-15, 1.224646799147353454E-16, -1.000000000000000000 ) ) ;
#78 = CC_DESIGN_PERSON_AND_ORGANIZATION_ASSIGNMENT ( #89, #200, ( #115 ) ) ;
#79 = ORIENTED_EDGE ( 'NONE', *, *, #278, .T. ) ;
#80 = ORIENTED_EDGE ( 'NONE', *, *, #333, .F. ) ;
#81 = AXIS2_PLACEMENT_3D ( 'NONE', #295, #244, #150 ) ;
#82 = VECTOR ( 'NONE', #39, 1000.000000000000000 ) ;
#83 = EDGE_CURVE ( 'NONE', #41, #166, #313, .T. ) ;
#84 = DIRECTION ( 'NONE',  ( 4.275831445896958607E-31, 1.000000000000000000, 1.224646799147353454E-16 ) ) ;
#85 = CALENDAR_DATE ( 2023, 3, 4 ) ;
#86 = ADVANCED_FACE ( 'NONE', ( #129 ), #232, .F. ) ;
#87 = PERSON_AND_ORGANIZATION ( #119, #275 ) ;
#88 = DIRECTION ( 'NONE',  ( 3.491481338843133355E-15, -1.217917285207545432E-16, 1.000000000000000000 ) ) ;
#89 = PERSON_AND_ORGANIZATION ( #119, #275 ) ;
#90 = LINE ( 'NONE', #234, #138 ) ;
#91 = DIRECTION ( 'NONE',  ( -4.252335473556634944E-31, -1.000000000000000000, -1.217917285207545432E-16 ) ) ;
#92 = CIRCLE ( 'NONE', #231, 10.00000000000000000 ) ;
#93 = APPROVAL ( #342, 'UNSPECIFIED' ) ;
#94 = DIRECTION ( 'NONE',  ( 4.275831445896959482E-31, 1.000000000000000000, 1.224646799147353454E-16 ) ) ;
#95 = PLANE ( 'NONE',  #296 ) ;
#96 = EDGE_LOOP ( 'NONE', ( #302, #272 ) ) ;
#97 = DIRECTION ( 'NONE',  ( 4.275831445896958607E-31, 1.000000000000000000, 1.224646799147353454E-16 ) ) ;
#98 = DIRECTION ( 'NONE',  ( -3.491481338843133355E-15, 1.224646799147353454E-16, -1.000000000000000000 ) ) ;
#99 = DIRECTION ( 'NONE',  ( 4.275831445896958607E-31, 1.000000000000000000, 1.224646799147353454E-16 ) ) ;
#100 = PRODUCT ( '367649', '367649', '', ( #279 ) ) ;
#101 = AXIS2_PLACEMENT_3D ( 'NONE', #318, #132, #65 ) ;
#102 = ORIENTED_EDGE ( 'NONE', *, *, #287, .T. ) ;
#103 = CC_DESIGN_SECURITY_CLASSIFICATION ( #115, ( #315 ) ) ;
#104 = CIRCLE ( 'NONE', #155, 9.000000000000000000 ) ;
#105 = ORIENTED_EDGE ( 'NONE', *, *, #287, .F. ) ;
#106 = CARTESIAN_POINT ( 'NONE',  ( 1.396592535537253342E-13, 9.999999999999994671, 40.00000000000000000 ) ) ;
#107 = ORIENTED_EDGE ( 'NONE', *, *, #128, .F. ) ;
#108 = APPROVAL_DATE_TIME ( #203, #349 ) ;
#109 = EDGE_LOOP ( 'NONE', ( #212, #299, #105, #337 ) ) ;
#110 = VECTOR ( 'NONE', #98, 1000.000000000000000 ) ;
#111 = EDGE_LOOP ( 'NONE', ( #107, #23 ) ) ;
#112 = ORIENTED_EDGE ( 'NONE', *, *, #172, .F. ) ;
#113 = DIRECTION ( 'NONE',  ( 4.275831445896958607E-31, 1.000000000000000000, 1.224646799147353454E-16 ) ) ;
#114 = CARTESIAN_POINT ( 'NONE',  ( 3.596225779008426977E-13, -1.261386203121773919E-14, 103.0000000000000000 ) ) ;
#115 = SECURITY_CLASSIFICATION ( '', '', #284 ) ;
#116 = VECTOR ( 'NONE', #43, 1000.000000000000000 ) ;
#117 = PERSON_AND_ORGANIZATION_ROLE ( 'design_owner' ) ;
#118 = ADVANCED_FACE ( 'NONE', ( #206 ), #264, .F. ) ;
#119 = PERSON ( 'UNSPECIFIED', 'UNSPECIFIED', 'UNSPECIFIED', ('UNSPECIFIED'), ('UNSPECIFIED'), ('UNSPECIFIED') ) ;
#120 = CC_DESIGN_DATE_AND_TIME_ASSIGNMENT ( #261, #160, ( #115 ) ) ;
#121 = APPLICATION_CONTEXT ( 'configuration controlled 3d designs of mechanical parts and assemblies' ) ;
#122 = APPROVAL_PERSON_ORGANIZATION ( #222, #4, #254 ) ;
#123 = PERSON_AND_ORGANIZATION_ROLE ( 'design_supplier' ) ;
#124 = CARTESIAN_POINT ( 'NONE',  ( 3.625317330294542294E-13, -9.000000000000010658, 104.0000000000000000 ) ) ;
#125 = APPROVAL_ROLE ( '' ) ;
#126 = EDGE_CURVE ( 'NONE', #142, #266, #90, .T. ) ;
#127 = CARTESIAN_POINT ( 'NONE',  ( 1.396592535537253342E-13, 7.498798913309283660E-32, 40.00000000000000000 ) ) ;
#128 = EDGE_CURVE ( 'NONE', #187, #46, #260, .T. ) ;
#129 = FACE_OUTER_BOUND ( 'NONE', #327, .T. ) ;
#130 = AXIS2_PLACEMENT_3D ( 'NONE', #290, #37, #99 ) ;
#131 = CARTESIAN_POINT ( 'NONE',  ( 7.140342170989433823E-14, -10.00000000000000000, 0.1999999999999980960 ) ) ;
#132 = DIRECTION ( 'NONE',  ( -3.491481338843133355E-15, 1.224646799147353454E-16, -1.000000000000000000 ) ) ;
#133 = EDGE_CURVE ( 'NONE', #193, #41, #285, .T. ) ;
#134 = EDGE_LOOP ( 'NONE', ( #48, #213, #297, #139 ) ) ;
#135 = DIRECTION ( 'NONE',  ( -3.491481338843133355E-15, 1.224646799147353454E-16, -1.000000000000000000 ) ) ;
#136 = CARTESIAN_POINT ( 'NONE',  ( 0.000000000000000000, 0.000000000000000000, 0.000000000000000000 ) ) ;
#137 = LOCAL_TIME ( 8, 1, 22.00000000000000000, #341 ) ;
#138 = VECTOR ( 'NONE', #164, 1000.000000000000000 ) ;
#139 = ORIENTED_EDGE ( 'NONE', *, *, #10, .F. ) ;
#140 = EDGE_LOOP ( 'NONE', ( #219, #330, #170, #243 ) ) ;
#141 = DIRECTION ( 'NONE',  ( 0.000000000000000000, 1.000000000000000000, 0.000000000000000000 ) ) ;
#142 = VERTEX_POINT ( 'NONE', #265 ) ;
#143 = CYLINDRICAL_SURFACE ( 'NONE', #26, 10.00000000000000000 ) ;
#144 = ADVANCED_FACE ( 'NONE', ( #38 ), #31, .T. ) ;
#145 = FACE_OUTER_BOUND ( 'NONE', #149, .T. ) ;
#146 = CARTESIAN_POINT ( 'NONE',  ( 7.017877491074699937E-14, 10.00000000000000000, 0.2000000000000005107 ) ) ;
#147 = ORIENTED_EDGE ( 'NONE', *, *, #277, .T. ) ;
#148 = AXIS2_PLACEMENT_3D ( 'NONE', #136, #77, #113 ) ;
#149 = EDGE_LOOP ( 'NONE', ( #269, #147, #217, #292 ) ) ;
#150 = DIRECTION ( 'NONE',  ( 0.000000000000000000, 1.000000000000000000, 0.000000000000000000 ) ) ;
#151 = CIRCLE ( 'NONE', #258, 10.00000000000000000 ) ;
#152 = DIRECTION ( 'NONE',  ( 1.000000000000000000, 0.000000000000000000, 0.000000000000000000 ) ) ;
#153 = CC_DESIGN_PERSON_AND_ORGANIZATION_ASSIGNMENT ( #177, #205, ( #315 ) ) ;
#154 = LOCAL_TIME ( 8, 1, 22.00000000000000000, #229 ) ;
#155 = AXIS2_PLACEMENT_3D ( 'NONE', #5, #22, #141 ) ;
#156 = EDGE_CURVE ( 'NONE', #274, #175, #58, .T. ) ;
#157 = DIRECTION ( 'NONE',  ( -3.491481338843133355E-15, 1.224646799147353454E-16, -1.000000000000000000 ) ) ;
#158 = DIRECTION ( 'NONE',  ( 0.000000000000000000, 1.000000000000000000, 0.000000000000000000 ) ) ;
#159 = CYLINDRICAL_SURFACE ( 'NONE', #130, 10.00000000000000000 ) ;
#160 = DATE_TIME_ROLE ( 'classification_date' ) ;
#161 = DIRECTION ( 'NONE',  ( 0.000000000000000000, 1.000000000000000000, 0.000000000000000000 ) ) ;
#162 = EDGE_CURVE ( 'NONE', #46, #187, #334, .T. ) ;
#163 = AXIS2_PLACEMENT_3D ( 'NONE', #332, #24, #329 ) ;
#164 = DIRECTION ( 'NONE',  ( -2.468850131082269682E-15, 0.7071067811865464625, -0.7071067811865486830 ) ) ;
#165 = DESIGN_CONTEXT ( 'detailed design', #319, 'design' ) ;
#166 = VERTEX_POINT ( 'NONE', #131 ) ;
#167 = CARTESIAN_POINT ( 'NONE',  ( 1.396592535537253342E-13, 7.498798913309283660E-32, 40.00000000000000000 ) ) ;
#168 = DIRECTION ( 'NONE',  ( -3.491481338843133355E-15, 1.224646799147353454E-16, -1.000000000000000000 ) ) ;
#169 = LOCAL_TIME ( 8, 1, 22.00000000000000000, #312 ) ;
#170 = ORIENTED_EDGE ( 'NONE', *, *, #126, .T. ) ;
#171 = ORIENTED_EDGE ( 'NONE', *, *, #172, .T. ) ;
#172 = EDGE_CURVE ( 'NONE', #41, #193, #92, .T. ) ;
#173 = FACE_OUTER_BOUND ( 'NONE', #352, .T. ) ;
#174 = CONICAL_SURFACE ( 'NONE', #339, 10.00000000000000000, 0.7853981633974483900 ) ;
#175 = VERTEX_POINT ( 'NONE', #42 ) ;
#176 = VECTOR ( 'NONE', #300, 999.9999999999998863 ) ;
#177 = PERSON_AND_ORGANIZATION ( #119, #275 ) ;
#178 = CARTESIAN_POINT ( 'NONE',  ( 6.982962677686242059E-16, -2.435834570415082606E-17, 0.1999999999999993172 ) ) ;
#179 = CC_DESIGN_APPROVAL ( #93, ( #224 ) ) ;
#180 = DIRECTION ( 'NONE',  ( -4.275831445896959482E-31, -1.000000000000000000, -1.224646799147353454E-16 ) ) ;
#181 = CLOSED_SHELL ( 'NONE', ( #70, #298, #118, #343, #144, #86 ) ) ;
#182 = CARTESIAN_POINT ( 'NONE',  ( 4.275831445896958957E-30, 10.00000000000000000, 1.224646799147353454E-15 ) ) ;
#183 = CARTESIAN_POINT ( 'NONE',  ( -4.167288764085502770E-30, 1.453656063335171267E-31, -1.193558939503394514E-15 ) ) ;
#184 = ORIENTED_EDGE ( 'NONE', *, *, #236, .F. ) ;
#185 =( NAMED_UNIT ( * ) PLANE_ANGLE_UNIT ( ) SI_UNIT ( $, .RADIAN. ) );
#186 = DIRECTION ( 'NONE',  ( -3.491481338843133355E-15, 1.224646799147353454E-16, -1.000000000000000000 ) ) ;
#187 = VERTEX_POINT ( 'NONE', #8 ) ;
#188 = ORIENTED_EDGE ( 'NONE', *, *, #190, .F. ) ;
#189 = CARTESIAN_POINT ( 'NONE',  ( 3.608472246999900492E-13, -10.00000000000000888, 103.0000000000000000 ) ) ;
#190 = EDGE_CURVE ( 'NONE', #46, #324, #235, .T. ) ;
#191 = ORIENTED_EDGE ( 'NONE', *, *, #83, .T. ) ;
#192 = AXIS2_PLACEMENT_3D ( 'NONE', #288, #186, #61 ) ;
#193 = VERTEX_POINT ( 'NONE', #11 ) ;
#194 = VERTEX_POINT ( 'NONE', #124 ) ;
#195 = AXIS2_PLACEMENT_3D ( 'NONE', #237, #354, #328 ) ;
#196 = MANIFOLD_SOLID_BREP ( 'Corps-Déplacer/Copier1[2]', #271 ) ;
#197 = DATE_AND_TIME ( #340, #268 ) ;
#198 = DIRECTION ( 'NONE',  ( 3.491481338843133355E-15, -1.217917285207545432E-16, 1.000000000000000000 ) ) ;
#199 = APPROVAL_ROLE ( '' ) ;
#200 = PERSON_AND_ORGANIZATION_ROLE ( 'classification_officer' ) ;
#201 = CARTESIAN_POINT ( 'NONE',  ( 1.396592535537253342E-13, -4.898587196589413815E-15, 40.00000000000000000 ) ) ;
#202 = APPROVAL_PERSON_ORGANIZATION ( #306, #93, #199 ) ;
#203 = DATE_AND_TIME ( #345, #154 ) ;
#204 = CARTESIAN_POINT ( 'NONE',  ( 1.224646799147348918E-15, -10.00000000000000000, -1.224646799147357595E-15 ) ) ;
#205 = PERSON_AND_ORGANIZATION_ROLE ( 'creator' ) ;
#206 = FACE_OUTER_BOUND ( 'NONE', #96, .T. ) ;
#207 = ADVANCED_FACE ( 'NONE', ( #230 ), #95, .T. ) ;
#208 = DIRECTION ( 'NONE',  ( 3.491481338843133355E-15, -1.224646799147353454E-16, 1.000000000000000000 ) ) ;
#209 = ORIENTED_EDGE ( 'NONE', *, *, #133, .F. ) ;
#210 = DIRECTION ( 'NONE',  ( 3.491481338843133355E-15, -1.217917285207545432E-16, 1.000000000000000000 ) ) ;
#211 = LINE ( 'NONE', #323, #176 ) ;
#212 = ORIENTED_EDGE ( 'NONE', *, *, #128, .T. ) ;
#213 = ORIENTED_EDGE ( 'NONE', *, *, #236, .T. ) ;
#214 = FACE_OUTER_BOUND ( 'NONE', #242, .T. ) ;
#215 = EDGE_CURVE ( 'NONE', #142, #194, #54, .T. ) ;
#216 = ORIENTED_EDGE ( 'NONE', *, *, #10, .T. ) ;
#217 = ORIENTED_EDGE ( 'NONE', *, *, #316, .F. ) ;
#218 = LOCAL_TIME ( 8, 1, 22.00000000000000000, #309 ) ;
#219 = ORIENTED_EDGE ( 'NONE', *, *, #277, .F. ) ;
#220 = ORIENTED_EDGE ( 'NONE', *, *, #55, .F. ) ;
#221 = DIRECTION ( 'NONE',  ( 0.000000000000000000, 0.000000000000000000, 1.000000000000000000 ) ) ;
#222 = PERSON_AND_ORGANIZATION ( #119, #275 ) ;
#223 = CC_DESIGN_APPROVAL ( #4, ( #315 ) ) ;
#224 = PRODUCT_DEFINITION ( 'UNKNOWN', '', #315, #165 ) ;
#225 = DIRECTION ( 'NONE',  ( -3.491481338843133355E-15, 1.224646799147353454E-16, -1.000000000000000000 ) ) ;
#226 = EDGE_CURVE ( 'NONE', #193, #324, #62, .T. ) ;
#227 =( GEOMETRIC_REPRESENTATION_CONTEXT ( 3 ) GLOBAL_UNCERTAINTY_ASSIGNED_CONTEXT ( ( #257 ) ) GLOBAL_UNIT_ASSIGNED_CONTEXT ( ( #64, #185, #336 ) ) REPRESENTATION_CONTEXT ( 'NONE', 'WORKASPACE' ) );
#228 = DIRECTION ( 'NONE',  ( 0.000000000000000000, 1.000000000000000000, 0.000000000000000000 ) ) ;
#229 = COORDINATED_UNIVERSAL_TIME_OFFSET ( 1, 0, .AHEAD. ) ;
#230 = FACE_OUTER_BOUND ( 'NONE', #71, .T. ) ;
#231 = AXIS2_PLACEMENT_3D ( 'NONE', #57, #40, #158 ) ;
#232 = PLANE ( 'NONE',  #353 ) ;
#233 = CC_DESIGN_PERSON_AND_ORGANIZATION_ASSIGNMENT ( #321, #123, ( #315 ) ) ;
#234 = CARTESIAN_POINT ( 'NONE',  ( 3.596225779008426977E-13, 9.999999999999984013, 103.0000000000000000 ) ) ;
#235 = LINE ( 'NONE', #348, #310 ) ;
#236 = EDGE_CURVE ( 'NONE', #17, #175, #286, .T. ) ;
#237 = CARTESIAN_POINT ( 'NONE',  ( 6.982962677686242059E-16, -2.435834570415082606E-17, 0.1999999999999993172 ) ) ;
#238 = AXIS2_PLACEMENT_3D ( 'NONE', #294, #135, #44 ) ;
#239 = FACE_OUTER_BOUND ( 'NONE', #247, .T. ) ;
#240 = AXIS2_PLACEMENT_3D ( 'NONE', #183, #210, #320 ) ;
#241 = FACE_OUTER_BOUND ( 'NONE', #109, .T. ) ;
#242 = EDGE_LOOP ( 'NONE', ( #188, #50, #246, #63 ) ) ;
#243 = ORIENTED_EDGE ( 'NONE', *, *, #19, .F. ) ;
#244 = DIRECTION ( 'NONE',  ( -3.491481338843133355E-15, 1.224646799147353454E-16, -1.000000000000000000 ) ) ;
#245 = AXIS2_PLACEMENT_3D ( 'NONE', #201, #291, #161 ) ;
#246 = ORIENTED_EDGE ( 'NONE', *, *, #314, .T. ) ;
#247 = EDGE_LOOP ( 'NONE', ( #360, #191, #102, #361 ) ) ;
#248 = APPROVAL_DATE_TIME ( #30, #93 ) ;
#249 = ADVANCED_FACE ( 'NONE', ( #350 ), #262, .T. ) ;
#250 = CARTESIAN_POINT ( 'NONE',  ( 1.561548465040198165E-15, 9.799999999999998934, -5.392603844284260389E-30 ) ) ;
#251 = PERSON_AND_ORGANIZATION_ROLE ( 'creator' ) ;
#252 = AXIS2_PLACEMENT_3D ( 'NONE', #289, #15, #91 ) ;
#253 = DIRECTION ( 'NONE',  ( -3.491481338843133355E-15, 1.224646799147353454E-16, -1.000000000000000000 ) ) ;
#254 = APPROVAL_ROLE ( '' ) ;
#255 = DATE_TIME_ROLE ( 'creation_date' ) ;
#256 = ADVANCED_FACE ( 'NONE', ( #214 ), #304, .T. ) ;
#257 = UNCERTAINTY_MEASURE_WITH_UNIT (LENGTH_MEASURE( 1.000000000000000082E-05 ), #64, 'distance_accuracy_value', 'NONE');
#258 = AXIS2_PLACEMENT_3D ( 'NONE', #282, #88, #281 ) ;
#259 = CC_DESIGN_APPROVAL ( #349, ( #115 ) ) ;
#260 = CIRCLE ( 'NONE', #240, 9.799999999999998934 ) ;
#261 = DATE_AND_TIME ( #56, #169 ) ;
#262 = PLANE ( 'NONE',  #238 ) ;
#263 = AXIS2_PLACEMENT_3D ( 'NONE', #322, #59, #228 ) ;
#264 = PLANE ( 'NONE',  #35 ) ;
#265 = CARTESIAN_POINT ( 'NONE',  ( 3.631140592396858689E-13, 8.999999999999987566, 104.0000000000000000 ) ) ;
#266 = VERTEX_POINT ( 'NONE', #267 ) ;
#267 = CARTESIAN_POINT ( 'NONE',  ( 3.596225779008426977E-13, 9.999999999999984013, 103.0000000000000000 ) ) ;
#268 = LOCAL_TIME ( 8, 1, 22.00000000000000000, #362 ) ;
#269 = ORIENTED_EDGE ( 'NONE', *, *, #215, .T. ) ;
#270 = DIRECTION ( 'NONE',  ( -3.491481338843133355E-15, 1.224646799147353454E-16, -1.000000000000000000 ) ) ;
#271 = CLOSED_SHELL ( 'NONE', ( #33, #357, #307, #207, #256, #249 ) ) ;
#272 = ORIENTED_EDGE ( 'NONE', *, *, #333, .T. ) ;
#273 = CARTESIAN_POINT ( 'NONE',  ( 2.508655625264312917E-13, -10.00000000000001066, 103.0000000000000000 ) ) ;
#274 = VERTEX_POINT ( 'NONE', #106 ) ;
#275 = ORGANIZATION ( 'UNSPECIFIED', 'UNSPECIFIED', '' ) ;
#276 = LINE ( 'NONE', #293, #116 ) ;
#277 = EDGE_CURVE ( 'NONE', #194, #17, #69, .T. ) ;
#278 = EDGE_CURVE ( 'NONE', #324, #166, #151, .T. ) ;
#279 = MECHANICAL_CONTEXT ( 'NONE', #121, 'mechanical' ) ;
#280 = VECTOR ( 'NONE', #157, 1000.000000000000000 ) ;
#281 = DIRECTION ( 'NONE',  ( -4.237045877651918877E-31, -1.000000000000000000, -1.219727444046192488E-16 ) ) ;
#282 = CARTESIAN_POINT ( 'NONE',  ( 6.982962677686242059E-16, -2.435834570415082606E-17, 0.1999999999999993172 ) ) ;
#283 = FACE_OUTER_BOUND ( 'NONE', #134, .T. ) ;
#284 = SECURITY_CLASSIFICATION_LEVEL ( 'unclassified' ) ;
#285 = CIRCLE ( 'NONE', #192, 10.00000000000000000 ) ;
#286 = LINE ( 'NONE', #36, #280 ) ;
#287 = EDGE_CURVE ( 'NONE', #166, #324, #45, .T. ) ;
#288 = CARTESIAN_POINT ( 'NONE',  ( 1.396592535537253342E-13, -4.898587196589413815E-15, 40.00000000000000000 ) ) ;
#289 = CARTESIAN_POINT ( 'NONE',  ( -4.167288764085502770E-30, 1.453656063335171267E-31, -1.193558939503394514E-15 ) ) ;
#290 = CARTESIAN_POINT ( 'NONE',  ( 0.000000000000000000, 0.000000000000000000, 0.000000000000000000 ) ) ;
#291 = DIRECTION ( 'NONE',  ( -3.491481338843133355E-15, 1.224646799147353454E-16, -1.000000000000000000 ) ) ;
#292 = ORIENTED_EDGE ( 'NONE', *, *, #126, .F. ) ;
#293 = CARTESIAN_POINT ( 'NONE',  ( 4.275831445896958256E-30, 9.999999999999998224, 1.224646799147353256E-15 ) ) ;
#294 = CARTESIAN_POINT ( 'NONE',  ( -2.137915722948479478E-30, 7.498798913309291323E-32, -6.123233995736767268E-16 ) ) ;
#295 = CARTESIAN_POINT ( 'NONE',  ( 1.396592535537253342E-13, -4.898587196589413815E-15, 40.00000000000000000 ) ) ;
#296 = AXIS2_PLACEMENT_3D ( 'NONE', #127, #208, #180 ) ;
#297 = ORIENTED_EDGE ( 'NONE', *, *, #156, .F. ) ;
#298 = ADVANCED_FACE ( 'NONE', ( #283 ), #363, .T. ) ;
#299 = ORIENTED_EDGE ( 'NONE', *, *, #190, .T. ) ;
#300 = DIRECTION ( 'NONE',  ( 2.468850131082265344E-15, -0.7071067811865477948, 0.7071067811865473507 ) ) ;
#301 = ORIENTED_EDGE ( 'NONE', *, *, #226, .T. ) ;
#302 = ORIENTED_EDGE ( 'NONE', *, *, #156, .T. ) ;
#303 = CARTESIAN_POINT ( 'NONE',  ( 0.000000000000000000, 0.000000000000000000, 0.000000000000000000 ) ) ;
#304 = CONICAL_SURFACE ( 'NONE', #195, 10.00000000000000000, 0.7853981633974483900 ) ;
#305 = AXIS2_PLACEMENT_3D ( 'NONE', #72, #168, #20 ) ;
#306 = PERSON_AND_ORGANIZATION ( #119, #275 ) ;
#307 = ADVANCED_FACE ( 'NONE', ( #308 ), #159, .T. ) ;
#308 = FACE_OUTER_BOUND ( 'NONE', #66, .T. ) ;
#309 = COORDINATED_UNIVERSAL_TIME_OFFSET ( 1, 0, .AHEAD. ) ;
#310 = VECTOR ( 'NONE', #12, 1000.000000000000000 ) ;
#311 = DATE_AND_TIME ( #28, #218 ) ;
#312 = COORDINATED_UNIVERSAL_TIME_OFFSET ( 1, 0, .AHEAD. ) ;
#313 = LINE ( 'NONE', #204, #82 ) ;
#314 = EDGE_CURVE ( 'NONE', #187, #166, #211, .T. ) ;
#315 = PRODUCT_DEFINITION_FORMATION_WITH_SPECIFIED_SOURCE ( 'ANY', '', #100, .NOT_KNOWN. ) ;
#316 = EDGE_CURVE ( 'NONE', #266, #17, #351, .T. ) ;
#317 = CONICAL_SURFACE ( 'NONE', #325, 9.999999999999996447, 0.7853981633974466137 ) ;
#318 = CARTESIAN_POINT ( 'NONE',  ( 3.596225779008426977E-13, -1.261386203121773919E-14, 103.0000000000000000 ) ) ;
#319 = APPLICATION_CONTEXT ( 'configuration controlled 3d designs of mechanical parts and assemblies' ) ;
#320 = DIRECTION ( 'NONE',  ( -4.252335473556634944E-31, -1.000000000000000000, -1.217917285207545432E-16 ) ) ;
#321 = PERSON_AND_ORGANIZATION ( #119, #275 ) ;
#322 = CARTESIAN_POINT ( 'NONE',  ( 3.631140592396858689E-13, -1.273632671113247592E-14, 104.0000000000000000 ) ) ;
#323 = CARTESIAN_POINT ( 'NONE',  ( 6.982962677686199657E-16, -10.00000000000000000, 0.1999999999999980960 ) ) ;
#324 = VERTEX_POINT ( 'NONE', #146 ) ;
#325 = AXIS2_PLACEMENT_3D ( 'NONE', #114, #253, #16 ) ;
#326 = DIRECTION ( 'NONE',  ( -4.275831445896959482E-31, -1.000000000000000000, -1.224646799147353454E-16 ) ) ;
#327 = EDGE_LOOP ( 'NONE', ( #47, #220 ) ) ;
#328 = DIRECTION ( 'NONE',  ( -4.237045877651918877E-31, -1.000000000000000000, -1.219727444046192488E-16 ) ) ;
#329 = DIRECTION ( 'NONE',  ( 0.000000000000000000, 1.000000000000000000, 0.000000000000000000 ) ) ;
#330 = ORIENTED_EDGE ( 'NONE', *, *, #55, .T. ) ;
#331 = ORIENTED_EDGE ( 'NONE', *, *, #83, .F. ) ;
#332 = CARTESIAN_POINT ( 'NONE',  ( 3.596225779008426977E-13, -1.261386203121773919E-14, 103.0000000000000000 ) ) ;
#333 = EDGE_CURVE ( 'NONE', #175, #274, #359, .T. ) ;
#334 = CIRCLE ( 'NONE', #252, 9.799999999999998934 ) ;
#335 = CARTESIAN_POINT ( 'NONE',  ( 6.982962677686242059E-16, -2.435834570415082606E-17, 0.1999999999999993172 ) ) ;
#336 =( NAMED_UNIT ( * ) SI_UNIT ( $, .STERADIAN. ) SOLID_ANGLE_UNIT ( ) );
#337 = ORIENTED_EDGE ( 'NONE', *, *, #314, .F. ) ;
#338 = CARTESIAN_POINT ( 'NONE',  ( 7.140342170989431299E-14, -10.00000000000000711, 40.00000000000000000 ) ) ;
#339 = AXIS2_PLACEMENT_3D ( 'NONE', #335, #355, #76 ) ;
#340 = CALENDAR_DATE ( 2023, 3, 4 ) ;
#341 = COORDINATED_UNIVERSAL_TIME_OFFSET ( 1, 0, .AHEAD. ) ;
#342 = APPROVAL_STATUS ( 'not_yet_approved' ) ;
#343 = ADVANCED_FACE ( 'NONE', ( #173 ), #74, .T. ) ;
#344 = CARTESIAN_POINT ( 'NONE',  ( 3.631140592396858689E-13, 6.748919021978343909E-32, 104.0000000000000000 ) ) ;
#345 = CALENDAR_DATE ( 2023, 3, 4 ) ;
#346 = DIRECTION ( 'NONE',  ( 3.491481338843133355E-15, -1.224646799147353454E-16, 1.000000000000000000 ) ) ;
#347 = DIRECTION ( 'NONE',  ( -3.491481338843133355E-15, 1.224646799147353454E-16, -1.000000000000000000 ) ) ;
#348 = CARTESIAN_POINT ( 'NONE',  ( 1.922943066915981702E-15, 10.00000000000000000, 0.2000000000000005107 ) ) ;
#349 = APPROVAL ( #9, 'UNSPECIFIED' ) ;
#350 = FACE_OUTER_BOUND ( 'NONE', #111, .T. ) ;
#351 = CIRCLE ( 'NONE', #163, 9.999999999999996447 ) ;
#352 = EDGE_LOOP ( 'NONE', ( #184, #68, #216, #80 ) ) ;
#353 = AXIS2_PLACEMENT_3D ( 'NONE', #344, #347, #94 ) ;
#354 = DIRECTION ( 'NONE',  ( 3.491481338843133355E-15, -1.217917285207545432E-16, 1.000000000000000000 ) ) ;
#355 = DIRECTION ( 'NONE',  ( 3.491481338843133355E-15, -1.217917285207545432E-16, 1.000000000000000000 ) ) ;
#356 = CARTESIAN_POINT ( 'NONE',  ( 0.000000000000000000, 0.000000000000000000, 0.000000000000000000 ) ) ;
#357 = ADVANCED_FACE ( 'NONE', ( #239 ), #143, .T. ) ;
#358 = CC_DESIGN_PERSON_AND_ORGANIZATION_ASSIGNMENT ( #27, #117, ( #100 ) ) ;
#359 = CIRCLE ( 'NONE', #81, 10.00000000000000000 ) ;
#360 = ORIENTED_EDGE ( 'NONE', *, *, #133, .T. ) ;
#361 = ORIENTED_EDGE ( 'NONE', *, *, #226, .F. ) ;
#362 = COORDINATED_UNIVERSAL_TIME_OFFSET ( 1, 0, .AHEAD. ) ;
#363 = CYLINDRICAL_SURFACE ( 'NONE', #34, 9.999999999999998224 ) ;
ENDSEC;
END-ISO-10303-21;
