ISO-10303-21;
HEADER;
FILE_DESCRIPTION (( 'STEP AP203' ),
    '1' );
FILE_NAME ('367648.step',
    '2023-04-03T05:54:25',
    ( '' ),
    ( '' ),
    'SwSTEP 2.0',
    'SolidWorks 2022',
    '' );
FILE_SCHEMA (( 'CONFIG_CONTROL_DESIGN' ));
ENDSEC;

DATA;
#1 = ORIENTED_EDGE ( 'NONE', *, *, #181, .T. ) ;
#2 = DIRECTION ( 'NONE',  ( 4.275831445896958607E-31, 1.000000000000000000, 1.224646799147353207E-16 ) ) ;
#3 = CC_DESIGN_SECURITY_CLASSIFICATION ( #205, ( #108 ) ) ;
#4 = ORIENTED_EDGE ( 'NONE', *, *, #47, .F. ) ;
#5 = CARTESIAN_POINT ( 'NONE',  ( 0.000000000000000000, 0.000000000000000000, 0.000000000000000000 ) ) ;
#6 = AXIS2_PLACEMENT_3D ( 'NONE', #7, #128, #243 ) ;
#7 = CARTESIAN_POINT ( 'NONE',  ( 2.513866563967056016E-13, -8.817456953860941711E-15, 72.00000000000000000 ) ) ;
#8 = EDGE_CURVE ( 'NONE', #195, #331, #228, .T. ) ;
#9 = DIRECTION ( 'NONE',  ( -3.491481338843133355E-15, 1.224646799147353207E-16, -1.000000000000000000 ) ) ;
#10 = CARTESIAN_POINT ( 'NONE',  ( 1.310619667342302806E-15, 5.000000000000000000, 0.1999999999999999001 ) ) ;
#11 = CYLINDRICAL_SURFACE ( 'NONE', #265, 5.000000000000000000 ) ;
#12 = CC_DESIGN_PERSON_AND_ORGANIZATION_ASSIGNMENT ( #198, #21, ( #108 ) ) ;
#13 = CARTESIAN_POINT ( 'NONE',  ( 2.496409157272840412E-13, -8.756224613903574137E-15, 71.50000000000000000 ) ) ;
#14 = CARTESIAN_POINT ( 'NONE',  ( 9.492250654665180858E-16, 4.799999999999998934, -3.274080905458300950E-30 ) ) ;
#15 = CIRCLE ( 'NONE', #233, 5.000000000000000000 ) ;
#16 = AXIS2_PLACEMENT_3D ( 'NONE', #262, #152, #2 ) ;
#17 = DIRECTION ( 'NONE',  ( 2.555445736705806118E-15, 0.7071067811865500152, 0.7071067811865450192 ) ) ;
#18 = EDGE_CURVE ( 'NONE', #195, #170, #164, .T. ) ;
#19 = ORIENTED_EDGE ( 'NONE', *, *, #190, .F. ) ;
#20 = APPLICATION_CONTEXT ( 'configuration controlled 3d designs of mechanical parts and assemblies' ) ;
#21 = PERSON_AND_ORGANIZATION_ROLE ( 'design_supplier' ) ;
#22 = CALENDAR_DATE ( 2023, 3, 4 ) ;
#23 = ORIENTED_EDGE ( 'NONE', *, *, #307, .F. ) ;
#24 = APPROVAL ( #56, 'UNSPECIFIED' ) ;
#25 = COORDINATED_UNIVERSAL_TIME_OFFSET ( 1, 0, .AHEAD. ) ;
#26 = EDGE_LOOP ( 'NONE', ( #232, #81 ) ) ;
#27 = EDGE_LOOP ( 'NONE', ( #230, #197, #90, #206 ) ) ;
#28 = LOCAL_TIME ( 7, 54, 25.00000000000000000, #85 ) ;
#29 = ORIENTED_EDGE ( 'NONE', *, *, #174, .T. ) ;
#30 = CARTESIAN_POINT ( 'NONE',  ( 0.000000000000000000, 0.000000000000000000, 0.000000000000000000 ) ) ;
#31 = LINE ( 'NONE', #127, #191 ) ;
#32 =( GEOMETRIC_REPRESENTATION_CONTEXT ( 3 ) GLOBAL_UNCERTAINTY_ASSIGNED_CONTEXT ( ( #362 ) ) GLOBAL_UNIT_ASSIGNED_CONTEXT ( ( #328, #298, #299 ) ) REPRESENTATION_CONTEXT ( 'NONE', 'WORKASPACE' ) );
#33 = AXIS2_PLACEMENT_3D ( 'NONE', #158, #216, #272 ) ;
#34 = VERTEX_POINT ( 'NONE', #260 ) ;
#35 = CARTESIAN_POINT ( 'NONE',  ( 2.137915722948479128E-30, 5.000000000000000000, 6.123233995736766282E-16 ) ) ;
#36 = PRODUCT_DEFINITION ( 'UNKNOWN', '', #108, #96 ) ;
#37 = VECTOR ( 'NONE', #17, 1000.000000000000000 ) ;
#38 = AXIS2_PLACEMENT_3D ( 'NONE', #218, #72, #80 ) ;
#39 = DIRECTION ( 'NONE',  ( -3.491481338843133355E-15, 1.224646799147353207E-16, -1.000000000000000000 ) ) ;
#40 = DIRECTION ( 'NONE',  ( -3.491481338843133355E-15, 1.224646799147353207E-16, -1.000000000000000000 ) ) ;
#41 = DIRECTION ( 'NONE',  ( 3.491481338843133355E-15, -1.217917285207545432E-16, 1.000000000000000000 ) ) ;
#42 = DIRECTION ( 'NONE',  ( 0.000000000000000000, 1.000000000000000000, 0.000000000000000000 ) ) ;
#43 = DIRECTION ( 'NONE',  ( -4.252335473556634944E-31, -1.000000000000000000, -1.217917285207545432E-16 ) ) ;
#44 = ADVANCED_FACE ( 'NONE', ( #338 ), #315, .T. ) ;
#45 = AXIS2_PLACEMENT_3D ( 'NONE', #51, #254, #226 ) ;
#46 = CARTESIAN_POINT ( 'NONE',  ( 7.681258945454893382E-14, -2.694222958124176809E-15, 22.00000000000000000 ) ) ;
#47 = EDGE_CURVE ( 'NONE', #165, #170, #208, .T. ) ;
#48 = AXIS2_PLACEMENT_3D ( 'NONE', #346, #275, #269 ) ;
#49 = APPLICATION_PROTOCOL_DEFINITION ( 'international standard', 'config_control_design', 1994, #317 ) ;
#50 = COORDINATED_UNIVERSAL_TIME_OFFSET ( 1, 0, .AHEAD. ) ;
#51 = CARTESIAN_POINT ( 'NONE',  ( 0.000000000000000000, 0.000000000000000000, 0.000000000000000000 ) ) ;
#52 = APPROVAL_PERSON_ORGANIZATION ( #353, #255, #114 ) ;
#53 = EDGE_LOOP ( 'NONE', ( #238, #92, #58, #60 ) ) ;
#54 = CC_DESIGN_PERSON_AND_ORGANIZATION_ASSIGNMENT ( #356, #143, ( #36 ) ) ;
#55 = ORIENTED_EDGE ( 'NONE', *, *, #261, .T. ) ;
#56 = APPROVAL_STATUS ( 'not_yet_approved' ) ;
#57 = CIRCLE ( 'NONE', #351, 5.000000000000000000 ) ;
#58 = ORIENTED_EDGE ( 'NONE', *, *, #47, .T. ) ;
#59 = ORIENTED_EDGE ( 'NONE', *, *, #259, .F. ) ;
#60 = ORIENTED_EDGE ( 'NONE', *, *, #18, .F. ) ;
#61 = LOCAL_TIME ( 7, 54, 25.00000000000000000, #25 ) ;
#62 = CC_DESIGN_PERSON_AND_ORGANIZATION_ASSIGNMENT ( #229, #137, ( #108 ) ) ;
#63 = DIRECTION ( 'NONE',  ( 4.275831445896958607E-31, 1.000000000000000000, 1.224646799147353207E-16 ) ) ;
#64 = EDGE_CURVE ( 'NONE', #141, #309, #180, .T. ) ;
#65 = CARTESIAN_POINT ( 'NONE',  ( 7.681258945454893382E-14, 3.749399456654640188E-32, 22.00000000000000000 ) ) ;
#66 = DIRECTION ( 'NONE',  ( 0.000000000000000000, 1.000000000000000000, 0.000000000000000000 ) ) ;
#67 = CARTESIAN_POINT ( 'NONE',  ( 6.123233995736744589E-16, -5.000000000000000000, -6.123233995736786990E-16 ) ) ;
#68 = CIRCLE ( 'NONE', #33, 4.799999999999998934 ) ;
#69 = CONICAL_SURFACE ( 'NONE', #185, 5.000000000000000000, 0.7853981633974491672 ) ;
#70 = FACE_OUTER_BOUND ( 'NONE', #26, .T. ) ;
#71 = PERSON ( 'UNSPECIFIED', 'UNSPECIFIED', 'UNSPECIFIED', ('UNSPECIFIED'), ('UNSPECIFIED'), ('UNSPECIFIED') ) ;
#72 = DIRECTION ( 'NONE',  ( -3.491481338843133355E-15, 1.224646799147353207E-16, -1.000000000000000000 ) ) ;
#73 = LOCAL_TIME ( 7, 54, 25.00000000000000000, #50 ) ;
#74 = DIRECTION ( 'NONE',  ( 3.491481338843133355E-15, -1.217917285207545432E-16, 1.000000000000000000 ) ) ;
#75 = ADVANCED_FACE ( 'NONE', ( #211 ), #244, .F. ) ;
#76 = AXIS2_PLACEMENT_3D ( 'NONE', #337, #146, #100 ) ;
#77 = DIRECTION ( 'NONE',  ( -3.491481338843133355E-15, 1.224646799147353207E-16, -1.000000000000000000 ) ) ;
#78 = ADVANCED_FACE ( 'NONE', ( #236 ), #88, .T. ) ;
#79 = DIRECTION ( 'NONE',  ( -4.237045877651918877E-31, -1.000000000000000000, -1.192622389734054877E-16 ) ) ;
#80 = DIRECTION ( 'NONE',  ( 0.000000000000000000, 1.000000000000000000, 0.000000000000000000 ) ) ;
#81 = ORIENTED_EDGE ( 'NONE', *, *, #300, .F. ) ;
#82 = VECTOR ( 'NONE', #175, 1000.000000000000000 ) ;
#83 = DATE_TIME_ROLE ( 'creation_date' ) ;
#84 = EDGE_LOOP ( 'NONE', ( #138, #59 ) ) ;
#85 = COORDINATED_UNIVERSAL_TIME_OFFSET ( 1, 0, .AHEAD. ) ;
#86 = ORIENTED_EDGE ( 'NONE', *, *, #18, .T. ) ;
#87 = VECTOR ( 'NONE', #40, 1000.000000000000000 ) ;
#88 = CONICAL_SURFACE ( 'NONE', #76, 5.000000000000000000, 0.7853981633974520538 ) ;
#89 = CIRCLE ( 'NONE', #306, 5.000000000000000000 ) ;
#90 = ORIENTED_EDGE ( 'NONE', *, *, #320, .F. ) ;
#91 = ADVANCED_BREP_SHAPE_REPRESENTATION ( '367648', ( #313, #196, #45 ), #32 ) ;
#92 = ORIENTED_EDGE ( 'NONE', *, *, #259, .T. ) ;
#93 = EDGE_CURVE ( 'NONE', #116, #195, #31, .T. ) ;
#94 = APPROVAL_DATE_TIME ( #329, #121 ) ;
#95 = EDGE_LOOP ( 'NONE', ( #169, #202 ) ) ;
#96 = DESIGN_CONTEXT ( 'detailed design', #20, 'design' ) ;
#97 = CC_DESIGN_PERSON_AND_ORGANIZATION_ASSIGNMENT ( #301, #361, ( #205 ) ) ;
#98 = VERTEX_POINT ( 'NONE', #288 ) ;
#99 = ADVANCED_FACE ( 'NONE', ( #70 ), #212, .T. ) ;
#100 = DIRECTION ( 'NONE',  ( -4.237045877651918877E-31, -1.000000000000000000, -1.192622389734054877E-16 ) ) ;
#101 = CARTESIAN_POINT ( 'NONE',  ( 6.123233995736744589E-16, -5.000000000000000000, -6.123233995736786990E-16 ) ) ;
#102 = CONICAL_SURFACE ( 'NONE', #295, 5.000000000000000000, 0.7853981633974491672 ) ;
#103 = DIRECTION ( 'NONE',  ( 0.000000000000000000, 1.000000000000000000, 0.000000000000000000 ) ) ;
#104 = DIRECTION ( 'NONE',  ( -2.382254525458714314E-15, -0.7071067811865480168, -0.7071067811865470176 ) ) ;
#105 = DIRECTION ( 'NONE',  ( -2.468850131082263371E-15, 0.7071067811865483499, -0.7071067811865467956 ) ) ;
#106 = DIRECTION ( 'NONE',  ( -4.275831445896958607E-31, -1.000000000000000000, -1.224646799147353207E-16 ) ) ;
#107 = DIRECTION ( 'NONE',  ( 2.468850131082255877E-15, -0.7071067811865502373, 0.7071067811865447972 ) ) ;
#108 = PRODUCT_DEFINITION_FORMATION_WITH_SPECIFIED_SOURCE ( 'ANY', '', #227, .NOT_KNOWN. ) ;
#109 = CARTESIAN_POINT ( 'NONE',  ( 6.982962677686242059E-16, -2.435834570415082606E-17, 0.1999999999999993172 ) ) ;
#110 = CONICAL_SURFACE ( 'NONE', #213, 5.000000000000000000, 0.7853981633974520538 ) ;
#111 = AXIS2_PLACEMENT_3D ( 'NONE', #220, #184, #135 ) ;
#112 = FACE_OUTER_BOUND ( 'NONE', #27, .T. ) ;
#113 = FACE_OUTER_BOUND ( 'NONE', #95, .T. ) ;
#114 = APPROVAL_ROLE ( '' ) ;
#115 = CALENDAR_DATE ( 2023, 3, 4 ) ;
#116 = VERTEX_POINT ( 'NONE', #312 ) ;
#117 = EDGE_CURVE ( 'NONE', #141, #355, #207, .T. ) ;
#118 = VECTOR ( 'NONE', #107, 1000.000000000000000 ) ;
#119 = EDGE_LOOP ( 'NONE', ( #142, #258, #203, #23 ) ) ;
#120 = ORIENTED_EDGE ( 'NONE', *, *, #93, .T. ) ;
#121 = APPROVAL ( #282, 'UNSPECIFIED' ) ;
#122 = CARTESIAN_POINT ( 'NONE',  ( 7.681258945454893382E-14, -2.694222958124176809E-15, 22.00000000000000000 ) ) ;
#123 = EDGE_LOOP ( 'NONE', ( #173, #86, #231, #200 ) ) ;
#124 = APPROVAL_PERSON_ORGANIZATION ( #172, #121, #194 ) ;
#125 = CARTESIAN_POINT ( 'NONE',  ( 2.496409157272840412E-13, -8.756224613903574137E-15, 71.50000000000000000 ) ) ;
#126 = AXIS2_PLACEMENT_3D ( 'NONE', #345, #77, #42 ) ;
#127 = CARTESIAN_POINT ( 'NONE',  ( 2.502532391268577422E-13, -5.000000000000008882, 71.50000000000000000 ) ) ;
#128 = DIRECTION ( 'NONE',  ( -3.491481338843133355E-15, 1.224646799147353207E-16, -1.000000000000000000 ) ) ;
#129 = DIRECTION ( 'NONE',  ( 3.491481338843133355E-15, -1.224646799147353207E-16, 1.000000000000000000 ) ) ;
#130 = CC_DESIGN_PERSON_AND_ORGANIZATION_ASSIGNMENT ( #280, #253, ( #227 ) ) ;
#131 = CARTESIAN_POINT ( 'NONE',  ( 0.000000000000000000, 0.000000000000000000, 0.000000000000000000 ) ) ;
#132 = PLANE ( 'NONE',  #111 ) ;
#133 = DIRECTION ( 'NONE',  ( -3.491481338843133355E-15, 1.224646799147353207E-16, -1.000000000000000000 ) ) ;
#134 = CARTESIAN_POINT ( 'NONE',  ( 3.875544286115878655E-14, 5.000000000000000000, 0.1999999999999999001 ) ) ;
#135 = DIRECTION ( 'NONE',  ( 4.275831445896958607E-31, 1.000000000000000000, 1.224646799147353207E-16 ) ) ;
#136 = APPROVAL_DATE_TIME ( #277, #255 ) ;
#137 = PERSON_AND_ORGANIZATION_ROLE ( 'creator' ) ;
#138 = ORIENTED_EDGE ( 'NONE', *, *, #181, .F. ) ;
#139 = ORIENTED_EDGE ( 'NONE', *, *, #300, .T. ) ;
#140 = ADVANCED_FACE ( 'NONE', ( #287 ), #148, .T. ) ;
#141 = VERTEX_POINT ( 'NONE', #343 ) ;
#142 = ORIENTED_EDGE ( 'NONE', *, *, #219, .F. ) ;
#143 = PERSON_AND_ORGANIZATION_ROLE ( 'creator' ) ;
#144 = ORIENTED_EDGE ( 'NONE', *, *, #219, .T. ) ;
#145 = CLOSED_SHELL ( 'NONE', ( #192, #140, #44, #99, #78, #286 ) ) ;
#146 = DIRECTION ( 'NONE',  ( 3.491481338843133355E-15, -1.217917285207545432E-16, 1.000000000000000000 ) ) ;
#147 = FACE_OUTER_BOUND ( 'NONE', #360, .T. ) ;
#148 = CYLINDRICAL_SURFACE ( 'NONE', #166, 5.000000000000000000 ) ;
#149 = DIRECTION ( 'NONE',  ( 0.000000000000000000, 1.000000000000000000, 0.000000000000000000 ) ) ;
#150 = VECTOR ( 'NONE', #319, 1000.000000000000000 ) ;
#151 = CIRCLE ( 'NONE', #250, 4.799999999999998934 ) ;
#152 = DIRECTION ( 'NONE',  ( -3.491481338843133355E-15, 1.224646799147353207E-16, -1.000000000000000000 ) ) ;
#153 = ADVANCED_FACE ( 'NONE', ( #147 ), #102, .T. ) ;
#154 = DIRECTION ( 'NONE',  ( 3.491481338843133355E-15, -1.224646799147353207E-16, 1.000000000000000000 ) ) ;
#155 = DIRECTION ( 'NONE',  ( -4.237045877651918877E-31, -1.000000000000000000, -1.192622389734054877E-16 ) ) ;
#156 = CARTESIAN_POINT ( 'NONE',  ( 2.137915722948479128E-30, 5.000000000000000000, 6.123233995736766282E-16 ) ) ;
#157 = CC_DESIGN_DATE_AND_TIME_ASSIGNMENT ( #201, #167, ( #205 ) ) ;
#158 = CARTESIAN_POINT ( 'NONE',  ( -2.041121027307184423E-30, 7.119948065315121647E-32, -5.846002968996216498E-16 ) ) ;
#159 = CARTESIAN_POINT ( 'NONE',  ( -4.082242054614368845E-30, -4.799999999999998934, -1.169200593799243300E-15 ) ) ;
#160 = CLOSED_SHELL ( 'NONE', ( #153, #249, #210, #274, #177, #75 ) ) ;
#161 = COORDINATED_UNIVERSAL_TIME_OFFSET ( 1, 0, .AHEAD. ) ;
#162 = LOCAL_TIME ( 7, 54, 25.00000000000000000, #193 ) ;
#163 = ORIENTED_EDGE ( 'NONE', *, *, #251, .F. ) ;
#164 = CIRCLE ( 'NONE', #344, 5.000000000000000000 ) ;
#165 = VERTEX_POINT ( 'NONE', #316 ) ;
#166 = AXIS2_PLACEMENT_3D ( 'NONE', #30, #179, #182 ) ;
#167 = DATE_TIME_ROLE ( 'classification_date' ) ;
#168 = ORIENTED_EDGE ( 'NONE', *, *, #332, .F. ) ;
#169 = ORIENTED_EDGE ( 'NONE', *, *, #302, .F. ) ;
#170 = VERTEX_POINT ( 'NONE', #266 ) ;
#171 = ORGANIZATION ( 'UNSPECIFIED', 'UNSPECIFIED', '' ) ;
#172 = PERSON_AND_ORGANIZATION ( #71, #171 ) ;
#173 = ORIENTED_EDGE ( 'NONE', *, *, #8, .F. ) ;
#174 = EDGE_CURVE ( 'NONE', #331, #34, #339, .T. ) ;
#175 = DIRECTION ( 'NONE',  ( -3.491481338843133355E-15, 1.224646799147353207E-16, -1.000000000000000000 ) ) ;
#176 = DIRECTION ( 'NONE',  ( -3.491481338843133355E-15, 1.224646799147353207E-16, -1.000000000000000000 ) ) ;
#177 = ADVANCED_FACE ( 'NONE', ( #267 ), #69, .T. ) ;
#178 = DIRECTION ( 'NONE',  ( -3.491481338843133355E-15, 1.224646799147353207E-16, -1.000000000000000000 ) ) ;
#179 = DIRECTION ( 'NONE',  ( -3.491481338843133355E-15, 1.224646799147353207E-16, -1.000000000000000000 ) ) ;
#180 = CIRCLE ( 'NONE', #334, 5.000000000000000000 ) ;
#181 = EDGE_CURVE ( 'NONE', #165, #116, #241, .T. ) ;
#182 = DIRECTION ( 'NONE',  ( 4.275831445896958607E-31, 1.000000000000000000, 1.224646799147353207E-16 ) ) ;
#183 = DIRECTION ( 'NONE',  ( -3.491481338843133355E-15, 1.224646799147353207E-16, -1.000000000000000000 ) ) ;
#184 = DIRECTION ( 'NONE',  ( -3.491481338843133355E-15, 1.224646799147353207E-16, -1.000000000000000000 ) ) ;
#185 = AXIS2_PLACEMENT_3D ( 'NONE', #291, #178, #149 ) ;
#186 = FACE_OUTER_BOUND ( 'NONE', #308, .T. ) ;
#187 = CARTESIAN_POINT ( 'NONE',  ( 7.681258945454893382E-14, 3.749399456654640188E-32, 22.00000000000000000 ) ) ;
#188 = CC_DESIGN_APPROVAL ( #24, ( #108 ) ) ;
#189 = CARTESIAN_POINT ( 'NONE',  ( 6.982962677686242059E-16, -2.435834570415082606E-17, 0.1999999999999993172 ) ) ;
#190 = EDGE_CURVE ( 'NONE', #309, #98, #341, .T. ) ;
#191 = VECTOR ( 'NONE', #104, 1000.000000000000000 ) ;
#192 = ADVANCED_FACE ( 'NONE', ( #186 ), #110, .T. ) ;
#193 = COORDINATED_UNIVERSAL_TIME_OFFSET ( 1, 0, .AHEAD. ) ;
#194 = APPROVAL_ROLE ( '' ) ;
#195 = VERTEX_POINT ( 'NONE', #323 ) ;
#196 = MANIFOLD_SOLID_BREP ( 'Corps-Déplacer/Copier1[2]', #145 ) ;
#197 = ORIENTED_EDGE ( 'NONE', *, *, #8, .T. ) ;
#198 = PERSON_AND_ORGANIZATION ( #71, #171 ) ;
#199 = AXIS2_PLACEMENT_3D ( 'NONE', #292, #209, #66 ) ;
#200 = ORIENTED_EDGE ( 'NONE', *, *, #174, .F. ) ;
#201 = DATE_AND_TIME ( #303, #28 ) ;
#202 = ORIENTED_EDGE ( 'NONE', *, *, #342, .F. ) ;
#203 = ORIENTED_EDGE ( 'NONE', *, *, #251, .T. ) ;
#204 = PERSON_AND_ORGANIZATION ( #71, #171 ) ;
#205 = SECURITY_CLASSIFICATION ( '', '', #330 ) ;
#206 = ORIENTED_EDGE ( 'NONE', *, *, #322, .F. ) ;
#207 = LINE ( 'NONE', #35, #82 ) ;
#208 = LINE ( 'NONE', #363, #325 ) ;
#209 = DIRECTION ( 'NONE',  ( -3.491481338843133355E-15, 1.224646799147353207E-16, -1.000000000000000000 ) ) ;
#210 = ADVANCED_FACE ( 'NONE', ( #296 ), #348, .F. ) ;
#211 = FACE_OUTER_BOUND ( 'NONE', #84, .T. ) ;
#212 = PLANE ( 'NONE',  #264 ) ;
#213 = AXIS2_PLACEMENT_3D ( 'NONE', #109, #321, #79 ) ;
#214 = LINE ( 'NONE', #252, #118 ) ;
#215 = DIRECTION ( 'NONE',  ( 4.275831445896958607E-31, 1.000000000000000000, 1.224646799147353207E-16 ) ) ;
#216 = DIRECTION ( 'NONE',  ( 3.491481338843133355E-15, -1.217917285207545432E-16, 1.000000000000000000 ) ) ;
#217 = CIRCLE ( 'NONE', #290, 5.000000000000000000 ) ;
#218 = CARTESIAN_POINT ( 'NONE',  ( 2.513866563967056016E-13, -8.817456953860941711E-15, 72.00000000000000000 ) ) ;
#219 = EDGE_CURVE ( 'NONE', #281, #355, #352, .T. ) ;
#220 = CARTESIAN_POINT ( 'NONE',  ( -1.068957861474239564E-30, 3.749399456654644020E-32, -3.061616997868383141E-16 ) ) ;
#221 = PRODUCT_DEFINITION_SHAPE ( 'NONE', 'NONE',  #36 ) ;
#222 = CC_DESIGN_APPROVAL ( #255, ( #36 ) ) ;
#223 = MECHANICAL_CONTEXT ( 'NONE', #317, 'mechanical' ) ;
#224 = DATE_AND_TIME ( #115, #237 ) ;
#225 = ORIENTED_EDGE ( 'NONE', *, *, #190, .T. ) ;
#226 = DIRECTION ( 'NONE',  ( 1.000000000000000000, 0.000000000000000000, 0.000000000000000000 ) ) ;
#227 = PRODUCT ( '367648', '367648', '', ( #223 ) ) ;
#228 = LINE ( 'NONE', #101, #150 ) ;
#229 = PERSON_AND_ORGANIZATION ( #71, #171 ) ;
#230 = ORIENTED_EDGE ( 'NONE', *, *, #332, .T. ) ;
#231 = ORIENTED_EDGE ( 'NONE', *, *, #322, .T. ) ;
#232 = ORIENTED_EDGE ( 'NONE', *, *, #64, .F. ) ;
#233 = AXIS2_PLACEMENT_3D ( 'NONE', #13, #133, #248 ) ;
#234 = AXIS2_PLACEMENT_3D ( 'NONE', #5, #289, #63 ) ;
#235 = ORIENTED_EDGE ( 'NONE', *, *, #307, .T. ) ;
#236 = FACE_OUTER_BOUND ( 'NONE', #119, .T. ) ;
#237 = LOCAL_TIME ( 7, 54, 25.00000000000000000, #161 ) ;
#238 = ORIENTED_EDGE ( 'NONE', *, *, #93, .F. ) ;
#239 = CARTESIAN_POINT ( 'NONE',  ( 2.496409157272840412E-13, -8.756224613903574137E-15, 71.50000000000000000 ) ) ;
#240 = ORIENTED_EDGE ( 'NONE', *, *, #117, .T. ) ;
#241 = CIRCLE ( 'NONE', #6, 4.499999999999999112 ) ;
#242 = DIRECTION ( 'NONE',  ( -4.275831445896958607E-31, -1.000000000000000000, -1.224646799147353207E-16 ) ) ;
#243 = DIRECTION ( 'NONE',  ( 0.000000000000000000, 1.000000000000000000, 0.000000000000000000 ) ) ;
#244 = PLANE ( 'NONE',  #16 ) ;
#245 = CARTESIAN_POINT ( 'NONE',  ( 3.936776626073243705E-14, -5.000000000000003553, 22.00000000000000000 ) ) ;
#246 = CARTESIAN_POINT ( 'NONE',  ( 6.982962677686242059E-16, -2.435834570415082606E-17, 0.1999999999999993172 ) ) ;
#247 = ORIENTED_EDGE ( 'NONE', *, *, #117, .F. ) ;
#248 = DIRECTION ( 'NONE',  ( 0.000000000000000000, 1.000000000000000000, 0.000000000000000000 ) ) ;
#249 = ADVANCED_FACE ( 'NONE', ( #112 ), #324, .T. ) ;
#250 = AXIS2_PLACEMENT_3D ( 'NONE', #294, #327, #43 ) ;
#251 = EDGE_CURVE ( 'NONE', #304, #98, #214, .T. ) ;
#252 = CARTESIAN_POINT ( 'NONE',  ( 6.982962677686221351E-16, -5.000000000000000000, 0.1999999999999987066 ) ) ;
#253 = PERSON_AND_ORGANIZATION_ROLE ( 'design_owner' ) ;
#254 = DIRECTION ( 'NONE',  ( 0.000000000000000000, 0.000000000000000000, 1.000000000000000000 ) ) ;
#255 = APPROVAL ( #354, 'UNSPECIFIED' ) ;
#256 = ORIENTED_EDGE ( 'NONE', *, *, #261, .F. ) ;
#257 = APPROVAL_DATE_TIME ( #335, #24 ) ;
#258 = ORIENTED_EDGE ( 'NONE', *, *, #342, .T. ) ;
#259 = EDGE_CURVE ( 'NONE', #116, #165, #318, .T. ) ;
#260 = CARTESIAN_POINT ( 'NONE',  ( 7.681258945454893382E-14, 4.999999999999997335, 22.00000000000000000 ) ) ;
#261 = EDGE_CURVE ( 'NONE', #98, #355, #57, .T. ) ;
#262 = CARTESIAN_POINT ( 'NONE',  ( 2.513866563967056016E-13, 3.374459510989165933E-32, 72.00000000000000000 ) ) ;
#263 = DIRECTION ( 'NONE',  ( 0.000000000000000000, 1.000000000000000000, 0.000000000000000000 ) ) ;
#264 = AXIS2_PLACEMENT_3D ( 'NONE', #65, #129, #242 ) ;
#265 = AXIS2_PLACEMENT_3D ( 'NONE', #131, #297, #215 ) ;
#266 = CARTESIAN_POINT ( 'NONE',  ( 2.496409157272840412E-13, 4.999999999999991118, 71.50000000000000000 ) ) ;
#267 = FACE_OUTER_BOUND ( 'NONE', #53, .T. ) ;
#268 = CC_DESIGN_APPROVAL ( #121, ( #205 ) ) ;
#269 = DIRECTION ( 'NONE',  ( 4.275831445896958607E-31, 1.000000000000000000, 1.224646799147353207E-16 ) ) ;
#270 = LINE ( 'NONE', #156, #87 ) ;
#271 = CARTESIAN_POINT ( 'NONE',  ( 1.638390759904901506E-13, -5.000000000000002665, 22.00000000000000000 ) ) ;
#272 = DIRECTION ( 'NONE',  ( -4.252335473556634944E-31, -1.000000000000000000, -1.217917285207545432E-16 ) ) ;
#273 = APPROVAL_PERSON_ORGANIZATION ( #204, #24, #357 ) ;
#274 = ADVANCED_FACE ( 'NONE', ( #326 ), #11, .T. ) ;
#275 = DIRECTION ( 'NONE',  ( -3.491481338843133355E-15, 1.224646799147353207E-16, -1.000000000000000000 ) ) ;
#276 = VECTOR ( 'NONE', #9, 1000.000000000000000 ) ;
#277 = DATE_AND_TIME ( #22, #162 ) ;
#278 = APPLICATION_PROTOCOL_DEFINITION ( 'international standard', 'config_control_design', 1994, #20 ) ;
#279 = CALENDAR_DATE ( 2023, 3, 4 ) ;
#280 = PERSON_AND_ORGANIZATION ( #71, #171 ) ;
#281 = VERTEX_POINT ( 'NONE', #14 ) ;
#282 = APPROVAL_STATUS ( 'not_yet_approved' ) ;
#283 = EDGE_LOOP ( 'NONE', ( #311, #225, #55, #247 ) ) ;
#284 = SHAPE_DEFINITION_REPRESENTATION ( #221, #91 ) ;
#285 = EDGE_LOOP ( 'NONE', ( #19, #139, #240, #235 ) ) ;
#286 = ADVANCED_FACE ( 'NONE', ( #113 ), #132, .T. ) ;
#287 = FACE_OUTER_BOUND ( 'NONE', #283, .T. ) ;
#288 = CARTESIAN_POINT ( 'NONE',  ( 3.936776626073245598E-14, -5.000000000000000000, 0.1999999999999987066 ) ) ;
#289 = DIRECTION ( 'NONE',  ( -3.491481338843133355E-15, 1.224646799147353207E-16, -1.000000000000000000 ) ) ;
#290 = AXIS2_PLACEMENT_3D ( 'NONE', #46, #183, #293 ) ;
#291 = CARTESIAN_POINT ( 'NONE',  ( 2.496409157272840412E-13, -8.756224613903574137E-15, 71.50000000000000000 ) ) ;
#292 = CARTESIAN_POINT ( 'NONE',  ( 7.681258945454893382E-14, -2.694222958124176809E-15, 22.00000000000000000 ) ) ;
#293 = DIRECTION ( 'NONE',  ( 0.000000000000000000, 1.000000000000000000, 0.000000000000000000 ) ) ;
#294 = CARTESIAN_POINT ( 'NONE',  ( -2.041121027307184423E-30, 7.119948065315121647E-32, -5.846002968996216498E-16 ) ) ;
#295 = AXIS2_PLACEMENT_3D ( 'NONE', #125, #340, #103 ) ;
#296 = FACE_OUTER_BOUND ( 'NONE', #336, .T. ) ;
#297 = DIRECTION ( 'NONE',  ( -3.491481338843133355E-15, 1.224646799147353207E-16, -1.000000000000000000 ) ) ;
#298 =( NAMED_UNIT ( * ) PLANE_ANGLE_UNIT ( ) SI_UNIT ( $, .RADIAN. ) );
#299 =( NAMED_UNIT ( * ) SI_UNIT ( $, .STERADIAN. ) SOLID_ANGLE_UNIT ( ) );
#300 = EDGE_CURVE ( 'NONE', #309, #141, #217, .T. ) ;
#301 = PERSON_AND_ORGANIZATION ( #71, #171 ) ;
#302 = EDGE_CURVE ( 'NONE', #304, #281, #151, .T. ) ;
#303 = CALENDAR_DATE ( 2023, 3, 4 ) ;
#304 = VERTEX_POINT ( 'NONE', #159 ) ;
#305 = AXIS2_PLACEMENT_3D ( 'NONE', #187, #154, #106 ) ;
#306 = AXIS2_PLACEMENT_3D ( 'NONE', #189, #41, #155 ) ;
#307 = EDGE_CURVE ( 'NONE', #355, #98, #89, .T. ) ;
#308 = EDGE_LOOP ( 'NONE', ( #359, #144, #256, #163 ) ) ;
#309 = VERTEX_POINT ( 'NONE', #245 ) ;
#310 = CALENDAR_DATE ( 2023, 3, 4 ) ;
#311 = ORIENTED_EDGE ( 'NONE', *, *, #64, .T. ) ;
#312 = CARTESIAN_POINT ( 'NONE',  ( 2.510954932915897566E-13, -4.500000000000007105, 72.00000000000000000 ) ) ;
#313 = MANIFOLD_SOLID_BREP ( 'Corps-Déplacer/Copier1[1]', #160 ) ;
#314 = DIRECTION ( 'NONE',  ( 0.000000000000000000, 1.000000000000000000, 0.000000000000000000 ) ) ;
#315 = CYLINDRICAL_SURFACE ( 'NONE', #234, 5.000000000000000000 ) ;
#316 = CARTESIAN_POINT ( 'NONE',  ( 2.513866563967056016E-13, 4.499999999999990230, 72.00000000000000000 ) ) ;
#317 = APPLICATION_CONTEXT ( 'configuration controlled 3d designs of mechanical parts and assemblies' ) ;
#318 = CIRCLE ( 'NONE', #38, 4.499999999999999112 ) ;
#319 = DIRECTION ( 'NONE',  ( -3.491481338843133355E-15, 1.224646799147353207E-16, -1.000000000000000000 ) ) ;
#320 = EDGE_CURVE ( 'NONE', #34, #331, #333, .T. ) ;
#321 = DIRECTION ( 'NONE',  ( 3.491481338843133355E-15, -1.217917285207545432E-16, 1.000000000000000000 ) ) ;
#322 = EDGE_CURVE ( 'NONE', #170, #34, #270, .T. ) ;
#323 = CARTESIAN_POINT ( 'NONE',  ( 1.638390759904901506E-13, -5.000000000000008882, 71.50000000000000000 ) ) ;
#324 = CYLINDRICAL_SURFACE ( 'NONE', #48, 5.000000000000000000 ) ;
#325 = VECTOR ( 'NONE', #105, 999.9999999999998863 ) ;
#326 = FACE_OUTER_BOUND ( 'NONE', #123, .T. ) ;
#327 = DIRECTION ( 'NONE',  ( 3.491481338843133355E-15, -1.217917285207545432E-16, 1.000000000000000000 ) ) ;
#328 =( LENGTH_UNIT ( ) NAMED_UNIT ( * ) SI_UNIT ( .MILLI., .METRE. ) );
#329 = DATE_AND_TIME ( #310, #73 ) ;
#330 = SECURITY_CLASSIFICATION_LEVEL ( 'unclassified' ) ;
#331 = VERTEX_POINT ( 'NONE', #271 ) ;
#332 = EDGE_CURVE ( 'NONE', #170, #195, #15, .T. ) ;
#333 = CIRCLE ( 'NONE', #126, 5.000000000000000000 ) ;
#334 = AXIS2_PLACEMENT_3D ( 'NONE', #122, #39, #314 ) ;
#335 = DATE_AND_TIME ( #279, #61 ) ;
#336 = EDGE_LOOP ( 'NONE', ( #349, #29 ) ) ;
#337 = CARTESIAN_POINT ( 'NONE',  ( 6.982962677686242059E-16, -2.435834570415082606E-17, 0.1999999999999993172 ) ) ;
#338 = FACE_OUTER_BOUND ( 'NONE', #285, .T. ) ;
#339 = CIRCLE ( 'NONE', #199, 5.000000000000000000 ) ;
#340 = DIRECTION ( 'NONE',  ( -3.491481338843133355E-15, 1.224646799147353207E-16, -1.000000000000000000 ) ) ;
#341 = LINE ( 'NONE', #67, #276 ) ;
#342 = EDGE_CURVE ( 'NONE', #281, #304, #68, .T. ) ;
#343 = CARTESIAN_POINT ( 'NONE',  ( 7.681258945454893382E-14, 4.999999999999997335, 22.00000000000000000 ) ) ;
#344 = AXIS2_PLACEMENT_3D ( 'NONE', #239, #176, #263 ) ;
#345 = CARTESIAN_POINT ( 'NONE',  ( 7.681258945454893382E-14, -2.694222958124176809E-15, 22.00000000000000000 ) ) ;
#346 = CARTESIAN_POINT ( 'NONE',  ( 0.000000000000000000, 0.000000000000000000, 0.000000000000000000 ) ) ;
#347 = CC_DESIGN_DATE_AND_TIME_ASSIGNMENT ( #224, #83, ( #36 ) ) ;
#348 = PLANE ( 'NONE',  #305 ) ;
#349 = ORIENTED_EDGE ( 'NONE', *, *, #320, .T. ) ;
#350 = DIRECTION ( 'NONE',  ( -4.237045877651918877E-31, -1.000000000000000000, -1.192622389734054877E-16 ) ) ;
#351 = AXIS2_PLACEMENT_3D ( 'NONE', #246, #74, #350 ) ;
#352 = LINE ( 'NONE', #10, #37 ) ;
#353 = PERSON_AND_ORGANIZATION ( #71, #171 ) ;
#354 = APPROVAL_STATUS ( 'not_yet_approved' ) ;
#355 = VERTEX_POINT ( 'NONE', #134 ) ;
#356 = PERSON_AND_ORGANIZATION ( #71, #171 ) ;
#357 = APPROVAL_ROLE ( '' ) ;
#358 = PRODUCT_RELATED_PRODUCT_CATEGORY ( 'detail', '', ( #227 ) ) ;
#359 = ORIENTED_EDGE ( 'NONE', *, *, #302, .T. ) ;
#360 = EDGE_LOOP ( 'NONE', ( #1, #120, #168, #4 ) ) ;
#361 = PERSON_AND_ORGANIZATION_ROLE ( 'classification_officer' ) ;
#362 = UNCERTAINTY_MEASURE_WITH_UNIT (LENGTH_MEASURE( 1.000000000000000082E-05 ), #328, 'distance_accuracy_value', 'NONE');
#363 = CARTESIAN_POINT ( 'NONE',  ( 2.496409157272840412E-13, 4.999999999999991118, 71.50000000000000000 ) ) ;
ENDSEC;
END-ISO-10303-21;
