ISO-10303-21;
HEADER;
FILE_DESCRIPTION (( 'STEP AP203' ),
    '1' );
FILE_NAME ('367647.step',
    '2023-04-03T05:54:25',
    ( '' ),
    ( '' ),
    'SwSTEP 2.0',
    'SolidWorks 2022',
    '' );
FILE_SCHEMA (( 'CONFIG_CONTROL_DESIGN' ));
ENDSEC;

DATA;
#1 = CIRCLE ( 'NONE', #259, 5.500000000000000000 ) ;
#2 = EDGE_CURVE ( 'NONE', #261, #356, #189, .T. ) ;
#3 = ORIENTED_EDGE ( 'NONE', *, *, #2, .T. ) ;
#4 = FACE_OUTER_BOUND ( 'NONE', #244, .T. ) ;
#5 = ORIENTED_EDGE ( 'NONE', *, *, #33, .F. ) ;
#6 = EDGE_CURVE ( 'NONE', #67, #144, #142, .T. ) ;
#7 = SECURITY_CLASSIFICATION ( '', '', #272 ) ;
#8 = ADVANCED_FACE ( 'NONE', ( #303 ), #279, .F. ) ;
#9 = CARTESIAN_POINT ( 'NONE',  ( 8.728703347107833388E-14, 5.999999999999996447, 25.00000000000000000 ) ) ;
#10 = APPROVAL_DATE_TIME ( #38, #195 ) ;
#11 = APPROVAL_ROLE ( '' ) ;
#12 = CARTESIAN_POINT ( 'NONE',  ( -1.282749433769087757E-30, 4.499279347985572824E-32, -3.673940397442059868E-16 ) ) ;
#13 = VECTOR ( 'NONE', #117, 1000.000000000000114 ) ;
#14 = AXIS2_PLACEMENT_3D ( 'NONE', #88, #202, #200 ) ;
#15 = APPROVAL_STATUS ( 'not_yet_approved' ) ;
#16 = DIRECTION ( 'NONE',  ( 0.000000000000000000, 1.000000000000000000, 0.000000000000000000 ) ) ;
#17 = CARTESIAN_POINT ( 'NONE',  ( 0.000000000000000000, 0.000000000000000000, 0.000000000000000000 ) ) ;
#18 = LINE ( 'NONE', #127, #41 ) ;
#19 = ORIENTED_EDGE ( 'NONE', *, *, #6, .F. ) ;
#20 = DIRECTION ( 'NONE',  ( 0.000000000000000000, 0.000000000000000000, 1.000000000000000000 ) ) ;
#21 = CARTESIAN_POINT ( 'NONE',  ( 2.897929511239800811E-13, 5.499999999999989342, 83.00000000000000000 ) ) ;
#22 = PERSON ( 'UNSPECIFIED', 'UNSPECIFIED', 'UNSPECIFIED', ('UNSPECIFIED'), ('UNSPECIFIED'), ('UNSPECIFIED') ) ;
#23 = DIRECTION ( 'NONE',  ( 0.000000000000000000, 1.000000000000000000, 0.000000000000000000 ) ) ;
#24 = FACE_OUTER_BOUND ( 'NONE', #122, .T. ) ;
#25 = EDGE_LOOP ( 'NONE', ( #135, #44, #101, #224 ) ) ;
#26 = ADVANCED_FACE ( 'NONE', ( #50 ), #162, .T. ) ;
#27 = DIRECTION ( 'NONE',  ( -4.252335473556634944E-31, -1.000000000000000000, -1.217917285207545432E-16 ) ) ;
#28 = CARTESIAN_POINT ( 'NONE',  ( 2.565498867538175514E-30, 6.000000000000000000, 7.347880794884119736E-16 ) ) ;
#29 = DIRECTION ( 'NONE',  ( -3.491481338843133355E-15, 1.224646799147353207E-16, -1.000000000000000000 ) ) ;
#30 = APPROVAL ( #15, 'UNSPECIFIED' ) ;
#31 = VECTOR ( 'NONE', #214, 1000.000000000000000 ) ;
#32 = ORIENTED_EDGE ( 'NONE', *, *, #161, .F. ) ;
#33 = EDGE_CURVE ( 'NONE', #328, #291, #344, .T. ) ;
#34 = ORIENTED_EDGE ( 'NONE', *, *, #345, .T. ) ;
#35 = ORIENTED_EDGE ( 'NONE', *, *, #139, .T. ) ;
#36 = ADVANCED_FACE ( 'NONE', ( #92 ), #332, .T. ) ;
#37 = CC_DESIGN_APPROVAL ( #195, ( #7 ) ) ;
#38 = DATE_AND_TIME ( #158, #265 ) ;
#39 = APPROVAL_DATE_TIME ( #118, #30 ) ;
#40 = CARTESIAN_POINT ( 'NONE',  ( 8.728703347107833388E-14, -3.061616997868383043E-15, 25.00000000000000000 ) ) ;
#41 = VECTOR ( 'NONE', #74, 1000.000000000000000 ) ;
#42 = DATE_AND_TIME ( #316, #179 ) ;
#43 = DIRECTION ( 'NONE',  ( -3.491481338843133355E-15, 1.224646799147353207E-16, -1.000000000000000000 ) ) ;
#44 = ORIENTED_EDGE ( 'NONE', *, *, #33, .T. ) ;
#45 = EDGE_CURVE ( 'NONE', #356, #164, #226, .T. ) ;
#46 = CARTESIAN_POINT ( 'NONE',  ( 2.565498867538175514E-30, 6.000000000000000000, 7.347880794884119736E-16 ) ) ;
#47 = ORIENTED_EDGE ( 'NONE', *, *, #321, .T. ) ;
#48 = DIRECTION ( 'NONE',  ( 3.491481338843133355E-15, -1.217917285207545432E-16, 1.000000000000000000 ) ) ;
#49 = CC_DESIGN_PERSON_AND_ORGANIZATION_ASSIGNMENT ( #238, #266, ( #133 ) ) ;
#50 = FACE_OUTER_BOUND ( 'NONE', #184, .T. ) ;
#51 = AXIS2_PLACEMENT_3D ( 'NONE', #304, #48, #359 ) ;
#52 = CARTESIAN_POINT ( 'NONE',  ( 0.000000000000000000, 0.000000000000000000, 0.000000000000000000 ) ) ;
#53 = AXIS2_PLACEMENT_3D ( 'NONE', #355, #361, #23 ) ;
#54 = EDGE_LOOP ( 'NONE', ( #205, #47, #115, #299 ) ) ;
#55 = CARTESIAN_POINT ( 'NONE',  ( 4.399266486942349290E-14, 6.000000000000000000, 0.2000000000000002887 ) ) ;
#56 = DIRECTION ( 'NONE',  ( 4.275831445896959482E-31, 1.000000000000000000, 1.224646799147353207E-16 ) ) ;
#57 = FACE_OUTER_BOUND ( 'NONE', #197, .T. ) ;
#58 = CIRCLE ( 'NONE', #208, 6.000000000000000000 ) ;
#59 = MANIFOLD_SOLID_BREP ( 'Corps-Déplacer/Copier1[2]', #311 ) ;
#60 = ORIENTED_EDGE ( 'NONE', *, *, #63, .F. ) ;
#61 = ORIENTED_EDGE ( 'NONE', *, *, #336, .F. ) ;
#62 = DIRECTION ( 'NONE',  ( 0.000000000000000000, 1.000000000000000000, 0.000000000000000000 ) ) ;
#63 = EDGE_CURVE ( 'NONE', #291, #315, #100, .T. ) ;
#64 = PERSON_AND_ORGANIZATION_ROLE ( 'creator' ) ;
#65 = COORDINATED_UNIVERSAL_TIME_OFFSET ( 1, 0, .AHEAD. ) ;
#66 = DIRECTION ( 'NONE',  ( -3.491481338843133355E-15, 1.224646799147353207E-16, -1.000000000000000000 ) ) ;
#67 = VERTEX_POINT ( 'NONE', #234 ) ;
#68 = DIRECTION ( 'NONE',  ( 2.468850131082257849E-15, -0.7071067811865496822, 0.7071067811865453523 ) ) ;
#69 = LOCAL_TIME ( 7, 54, 25.00000000000000000, #95 ) ;
#70 = ORIENTED_EDGE ( 'NONE', *, *, #140, .F. ) ;
#71 = APPLICATION_CONTEXT ( 'configuration controlled 3d designs of mechanical parts and assemblies' ) ;
#72 = EDGE_CURVE ( 'NONE', #328, #103, #243, .T. ) ;
#73 = DATE_AND_TIME ( #149, #196 ) ;
#74 = DIRECTION ( 'NONE',  ( -3.491481338843133355E-15, 1.224646799147353207E-16, -1.000000000000000000 ) ) ;
#75 = CARTESIAN_POINT ( 'NONE',  ( -2.466354574662847742E-30, 8.603270578922440071E-32, -7.063920254203762423E-16 ) ) ;
#76 = CC_DESIGN_PERSON_AND_ORGANIZATION_ASSIGNMENT ( #176, #64, ( #273 ) ) ;
#77 = DIRECTION ( 'NONE',  ( 3.491481338843133355E-15, -1.224646799147353207E-16, 1.000000000000000000 ) ) ;
#78 = DIRECTION ( 'NONE',  ( -3.491481338843133355E-15, 1.224646799147353207E-16, -1.000000000000000000 ) ) ;
#79 = DIRECTION ( 'NONE',  ( -4.252335473556634944E-31, -1.000000000000000000, -1.217917285207545432E-16 ) ) ;
#80 = LINE ( 'NONE', #108, #363 ) ;
#81 = AXIS2_PLACEMENT_3D ( 'NONE', #219, #104, #27 ) ;
#82 = CYLINDRICAL_SURFACE ( 'NONE', #338, 6.000000000000000000 ) ;
#83 = FACE_OUTER_BOUND ( 'NONE', #157, .T. ) ;
#84 = CARTESIAN_POINT ( 'NONE',  ( 2.897929511239800811E-13, -1.016456843292303150E-14, 83.00000000000000000 ) ) ;
#85 = ADVANCED_FACE ( 'NONE', ( #271 ), #90, .T. ) ;
#86 = ORIENTED_EDGE ( 'NONE', *, *, #211, .F. ) ;
#87 = ORIENTED_EDGE ( 'NONE', *, *, #161, .T. ) ;
#88 = CARTESIAN_POINT ( 'NONE',  ( 2.880472104545584703E-13, -1.010333609296566392E-14, 82.50000000000000000 ) ) ;
#89 = APPROVAL_PERSON_ORGANIZATION ( #97, #30, #129 ) ;
#90 = CONICAL_SURFACE ( 'NONE', #296, 6.000000000000000000, 0.7853981633974511656 ) ;
#91 = EDGE_CURVE ( 'NONE', #356, #263, #18, .T. ) ;
#92 = FACE_OUTER_BOUND ( 'NONE', #54, .T. ) ;
#93 = DIRECTION ( 'NONE',  ( -3.491481338843133355E-15, 1.224646799147353207E-16, -1.000000000000000000 ) ) ;
#94 = EDGE_CURVE ( 'NONE', #164, #356, #231, .T. ) ;
#95 = COORDINATED_UNIVERSAL_TIME_OFFSET ( 1, 0, .AHEAD. ) ;
#96 = AXIS2_PLACEMENT_3D ( 'NONE', #333, #222, #216 ) ;
#97 = PERSON_AND_ORGANIZATION ( #22, #258 ) ;
#98 = CARTESIAN_POINT ( 'NONE',  ( 7.347880794884094098E-16, -6.000000000000000000, -7.347880794884144388E-16 ) ) ;
#99 = APPROVAL_ROLE ( '' ) ;
#100 = LINE ( 'NONE', #46, #254 ) ;
#101 = ORIENTED_EDGE ( 'NONE', *, *, #63, .T. ) ;
#102 = ADVANCED_FACE ( 'NONE', ( #209 ), #350, .T. ) ;
#103 = VERTEX_POINT ( 'NONE', #177 ) ;
#104 = DIRECTION ( 'NONE',  ( 3.491481338843133355E-15, -1.217917285207545432E-16, 1.000000000000000000 ) ) ;
#105 = CARTESIAN_POINT ( 'NONE',  ( 8.728703347107833388E-14, 4.499279347985567350E-32, 25.00000000000000000 ) ) ;
#106 = APPLICATION_PROTOCOL_DEFINITION ( 'international standard', 'config_control_design', 1994, #329 ) ;
#107 = AXIS2_PLACEMENT_3D ( 'NONE', #230, #154, #126 ) ;
#108 = CARTESIAN_POINT ( 'NONE',  ( 2.880472104545584703E-13, 5.999999999999990230, 82.50000000000000000 ) ) ;
#109 = AXIS2_PLACEMENT_3D ( 'NONE', #342, #288, #62 ) ;
#110 = CC_DESIGN_PERSON_AND_ORGANIZATION_ASSIGNMENT ( #245, #147, ( #229 ) ) ;
#111 = CC_DESIGN_SECURITY_CLASSIFICATION ( #7, ( #229 ) ) ;
#112 = AXIS2_PLACEMENT_3D ( 'NONE', #352, #78, #335 ) ;
#113 = ORIENTED_EDGE ( 'NONE', *, *, #242, .F. ) ;
#114 = APPROVAL_PERSON_ORGANIZATION ( #174, #195, #99 ) ;
#115 = ORIENTED_EDGE ( 'NONE', *, *, #358, .T. ) ;
#116 = EDGE_CURVE ( 'NONE', #67, #103, #295, .T. ) ;
#117 = DIRECTION ( 'NONE',  ( 2.555445736705807696E-15, 0.7071067811865493491, 0.7071067811865455743 ) ) ;
#118 = DATE_AND_TIME ( #213, #69 ) ;
#119 = AXIS2_PLACEMENT_3D ( 'NONE', #75, #160, #79 ) ;
#120 = CARTESIAN_POINT ( 'NONE',  ( 6.982962677686226281E-16, -6.000000000000000000, 0.1999999999999988176 ) ) ;
#121 = PERSON_AND_ORGANIZATION ( #22, #258 ) ;
#122 = EDGE_LOOP ( 'NONE', ( #289, #330 ) ) ;
#123 = DATE_TIME_ROLE ( 'creation_date' ) ;
#124 = EDGE_CURVE ( 'NONE', #201, #263, #58, .T. ) ;
#125 = CARTESIAN_POINT ( 'NONE',  ( 1.071689745381254614E-15, 5.799999999999998934, -3.755563391555109913E-30 ) ) ;
#126 = DIRECTION ( 'NONE',  ( -4.172848212839010723E-31, -1.000000000000000000, -1.219727444046192488E-16 ) ) ;
#127 = CARTESIAN_POINT ( 'NONE',  ( 7.347880794884094098E-16, -6.000000000000000000, -7.347880794884144388E-16 ) ) ;
#128 = ORIENTED_EDGE ( 'NONE', *, *, #211, .T. ) ;
#129 = APPROVAL_ROLE ( '' ) ;
#130 = AXIS2_PLACEMENT_3D ( 'NONE', #84, #252, #190 ) ;
#131 = CIRCLE ( 'NONE', #253, 6.000000000000000000 ) ;
#132 = DIRECTION ( 'NONE',  ( -2.468850131082263371E-15, 0.7071067811865483499, -0.7071067811865467956 ) ) ;
#133 = PRODUCT ( '367647', '367647', '', ( #320 ) ) ;
#134 = DIRECTION ( 'NONE',  ( -3.491481338843133355E-15, 1.224646799147353207E-16, -1.000000000000000000 ) ) ;
#135 = ORIENTED_EDGE ( 'NONE', *, *, #72, .F. ) ;
#136 = CARTESIAN_POINT ( 'NONE',  ( 2.897929511239800811E-13, 4.124339402320093095E-32, 83.00000000000000000 ) ) ;
#137 = CONICAL_SURFACE ( 'NONE', #107, 6.000000000000000000, 0.7853981633974511656 ) ;
#138 = AXIS2_PLACEMENT_3D ( 'NONE', #12, #66, #268 ) ;
#139 = EDGE_CURVE ( 'NONE', #291, #328, #349, .T. ) ;
#140 = EDGE_CURVE ( 'NONE', #164, #201, #159, .T. ) ;
#141 = CC_DESIGN_APPROVAL ( #30, ( #229 ) ) ;
#142 = CIRCLE ( 'NONE', #119, 5.799999999999998934 ) ;
#143 = LINE ( 'NONE', #172, #13 ) ;
#144 = VERTEX_POINT ( 'NONE', #125 ) ;
#145 = AXIS2_PLACEMENT_3D ( 'NONE', #17, #20, #325 ) ;
#146 = AXIS2_PLACEMENT_3D ( 'NONE', #198, #313, #308 ) ;
#147 = PERSON_AND_ORGANIZATION_ROLE ( 'design_supplier' ) ;
#148 = CARTESIAN_POINT ( 'NONE',  ( 8.728703347107833388E-14, 5.999999999999996447, 25.00000000000000000 ) ) ;
#149 = CALENDAR_DATE ( 2023, 3, 4 ) ;
#150 = CARTESIAN_POINT ( 'NONE',  ( 2.880472104545584703E-13, -1.010333609296566392E-14, 82.50000000000000000 ) ) ;
#151 = ORIENTED_EDGE ( 'NONE', *, *, #6, .T. ) ;
#152 = COORDINATED_UNIVERSAL_TIME_OFFSET ( 1, 0, .AHEAD. ) ;
#153 = AXIS2_PLACEMENT_3D ( 'NONE', #191, #305, #56 ) ;
#154 = DIRECTION ( 'NONE',  ( 3.491481338843133355E-15, -1.217917285207545432E-16, 1.000000000000000000 ) ) ;
#155 = ADVANCED_FACE ( 'NONE', ( #241 ), #317, .T. ) ;
#156 = DIRECTION ( 'NONE',  ( 3.491481338843133355E-15, -1.217917285207545432E-16, 1.000000000000000000 ) ) ;
#157 = EDGE_LOOP ( 'NONE', ( #312, #275, #246, #70 ) ) ;
#158 = CALENDAR_DATE ( 2023, 3, 4 ) ;
#159 = LINE ( 'NONE', #28, #278 ) ;
#160 = DIRECTION ( 'NONE',  ( 3.491481338843133355E-15, -1.217917285207545432E-16, 1.000000000000000000 ) ) ;
#161 = EDGE_CURVE ( 'NONE', #103, #315, #302, .T. ) ;
#162 = CYLINDRICAL_SURFACE ( 'NONE', #146, 6.000000000000000000 ) ;
#163 = CYLINDRICAL_SURFACE ( 'NONE', #337, 6.000000000000000000 ) ;
#164 = VERTEX_POINT ( 'NONE', #274 ) ;
#165 = FACE_OUTER_BOUND ( 'NONE', #25, .T. ) ;
#166 = DIRECTION ( 'NONE',  ( -3.491481338843133355E-15, 1.224646799147353207E-16, -1.000000000000000000 ) ) ;
#167 = VECTOR ( 'NONE', #347, 1000.000000000000000 ) ;
#168 = ORIENTED_EDGE ( 'NONE', *, *, #116, .F. ) ;
#169 = ORIENTED_EDGE ( 'NONE', *, *, #116, .T. ) ;
#170 = VERTEX_POINT ( 'NONE', #21 ) ;
#171 = MANIFOLD_SOLID_BREP ( 'Corps-Déplacer/Copier1[1]', #326 ) ;
#172 = CARTESIAN_POINT ( 'NONE',  ( 1.433084347257039532E-15, 6.000000000000000000, 0.2000000000000002887 ) ) ;
#173 = APPROVAL_PERSON_ORGANIZATION ( #204, #203, #11 ) ;
#174 = PERSON_AND_ORGANIZATION ( #22, #258 ) ;
#175 = CC_DESIGN_PERSON_AND_ORGANIZATION_ASSIGNMENT ( #121, #267, ( #229 ) ) ;
#176 = PERSON_AND_ORGANIZATION ( #22, #258 ) ;
#177 = CARTESIAN_POINT ( 'NONE',  ( 4.472745294891189117E-14, -6.000000000000000000, 0.1999999999999988176 ) ) ;
#178 = CARTESIAN_POINT ( 'NONE',  ( 6.982962677686250933E-16, -2.435834570415085380E-17, 0.1999999999999995393 ) ) ;
#179 = LOCAL_TIME ( 7, 54, 25.00000000000000000, #152 ) ;
#180 = AXIS2_PLACEMENT_3D ( 'NONE', #314, #239, #297 ) ;
#181 = ORIENTED_EDGE ( 'NONE', *, *, #91, .F. ) ;
#182 = PERSON_AND_ORGANIZATION ( #22, #258 ) ;
#183 = DIRECTION ( 'NONE',  ( 0.000000000000000000, 1.000000000000000000, 0.000000000000000000 ) ) ;
#184 = EDGE_LOOP ( 'NONE', ( #181, #220, #255, #113 ) ) ;
#185 = CARTESIAN_POINT ( 'NONE',  ( 1.884019100423067814E-13, -6.000000000000011546, 82.50000000000000000 ) ) ;
#186 = EDGE_CURVE ( 'NONE', #170, #261, #1, .T. ) ;
#187 = DIRECTION ( 'NONE',  ( 3.491481338843133355E-15, -1.224646799147353207E-16, 1.000000000000000000 ) ) ;
#188 = CYLINDRICAL_SURFACE ( 'NONE', #153, 6.000000000000000000 ) ;
#189 = LINE ( 'NONE', #218, #31 ) ;
#190 = DIRECTION ( 'NONE',  ( 0.000000000000000000, 1.000000000000000000, 0.000000000000000000 ) ) ;
#191 = CARTESIAN_POINT ( 'NONE',  ( 0.000000000000000000, 0.000000000000000000, 0.000000000000000000 ) ) ;
#192 = DESIGN_CONTEXT ( 'detailed design', #71, 'design' ) ;
#193 = ADVANCED_FACE ( 'NONE', ( #83 ), #188, .T. ) ;
#194 =( NAMED_UNIT ( * ) PLANE_ANGLE_UNIT ( ) SI_UNIT ( $, .RADIAN. ) );
#195 = APPROVAL ( #353, 'UNSPECIFIED' ) ;
#196 = LOCAL_TIME ( 7, 54, 25.00000000000000000, #233 ) ;
#197 = EDGE_LOOP ( 'NONE', ( #35, #250, #87, #60 ) ) ;
#198 = CARTESIAN_POINT ( 'NONE',  ( 0.000000000000000000, 0.000000000000000000, 0.000000000000000000 ) ) ;
#199 = ORIENTED_EDGE ( 'NONE', *, *, #186, .T. ) ;
#200 = DIRECTION ( 'NONE',  ( 0.000000000000000000, 1.000000000000000000, 0.000000000000000000 ) ) ;
#201 = VERTEX_POINT ( 'NONE', #9 ) ;
#202 = DIRECTION ( 'NONE',  ( -3.491481338843133355E-15, 1.224646799147353207E-16, -1.000000000000000000 ) ) ;
#203 = APPROVAL ( #351, 'UNSPECIFIED' ) ;
#204 = PERSON_AND_ORGANIZATION ( #22, #258 ) ;
#205 = ORIENTED_EDGE ( 'NONE', *, *, #2, .F. ) ;
#206 = DATE_AND_TIME ( #346, #285 ) ;
#207 = CARTESIAN_POINT ( 'NONE',  ( 1.884019100423068319E-13, -6.000000000000003553, 25.00000000000000000 ) ) ;
#208 = AXIS2_PLACEMENT_3D ( 'NONE', #40, #269, #16 ) ;
#209 = FACE_OUTER_BOUND ( 'NONE', #281, .T. ) ;
#210 = DATE_TIME_ROLE ( 'classification_date' ) ;
#211 = EDGE_CURVE ( 'NONE', #144, #315, #143, .T. ) ;
#212 = DIRECTION ( 'NONE',  ( -3.491481338843133355E-15, 1.224646799147353207E-16, -1.000000000000000000 ) ) ;
#213 = CALENDAR_DATE ( 2023, 3, 4 ) ;
#214 = DIRECTION ( 'NONE',  ( -2.382254525458714314E-15, -0.7071067811865480168, -0.7071067811865470176 ) ) ;
#215 = CIRCLE ( 'NONE', #130, 5.500000000000000000 ) ;
#216 = DIRECTION ( 'NONE',  ( -4.172848212839010723E-31, -1.000000000000000000, -1.219727444046192488E-16 ) ) ;
#217 = VECTOR ( 'NONE', #68, 1000.000000000000000 ) ;
#218 = CARTESIAN_POINT ( 'NONE',  ( 2.887819985340468811E-13, -6.000000000000011546, 82.50000000000000000 ) ) ;
#219 = CARTESIAN_POINT ( 'NONE',  ( -2.466354574662847742E-30, 8.603270578922440071E-32, -7.063920254203762423E-16 ) ) ;
#220 = ORIENTED_EDGE ( 'NONE', *, *, #45, .T. ) ;
#221 = CARTESIAN_POINT ( 'NONE',  ( 0.000000000000000000, 0.000000000000000000, 0.000000000000000000 ) ) ;
#222 = DIRECTION ( 'NONE',  ( 3.491481338843133355E-15, -1.217917285207545432E-16, 1.000000000000000000 ) ) ;
#223 = UNCERTAINTY_MEASURE_WITH_UNIT (LENGTH_MEASURE( 1.000000000000000082E-05 ), #280, 'distance_accuracy_value', 'NONE');
#224 = ORIENTED_EDGE ( 'NONE', *, *, #336, .T. ) ;
#225 = PLANE ( 'NONE',  #343 ) ;
#226 = CIRCLE ( 'NONE', #180, 6.000000000000000888 ) ;
#227 = CC_DESIGN_APPROVAL ( #203, ( #273 ) ) ;
#228 = ORIENTED_EDGE ( 'NONE', *, *, #139, .F. ) ;
#229 = PRODUCT_DEFINITION_FORMATION_WITH_SPECIFIED_SOURCE ( 'ANY', '', #133, .NOT_KNOWN. ) ;
#230 = CARTESIAN_POINT ( 'NONE',  ( 6.982962677686250933E-16, -2.435834570415085380E-17, 0.1999999999999995393 ) ) ;
#231 = CIRCLE ( 'NONE', #286, 6.000000000000000888 ) ;
#232 = CARTESIAN_POINT ( 'NONE',  ( 8.728703347107833388E-14, -3.061616997868383043E-15, 25.00000000000000000 ) ) ;
#233 = COORDINATED_UNIVERSAL_TIME_OFFSET ( 1, 0, .AHEAD. ) ;
#234 = CARTESIAN_POINT ( 'NONE',  ( -4.932709149325695484E-30, -5.799999999999998934, -1.412784050840752485E-15 ) ) ;
#235 = ORIENTED_EDGE ( 'NONE', *, *, #345, .F. ) ;
#236 = DIRECTION ( 'NONE',  ( -4.172848212839010723E-31, -1.000000000000000000, -1.219727444046192488E-16 ) ) ;
#237 = PRODUCT_RELATED_PRODUCT_CATEGORY ( 'detail', '', ( #133 ) ) ;
#238 = PERSON_AND_ORGANIZATION ( #22, #258 ) ;
#239 = DIRECTION ( 'NONE',  ( -3.491481338843133355E-15, 1.224646799147353207E-16, -1.000000000000000000 ) ) ;
#240 = APPLICATION_PROTOCOL_DEFINITION ( 'international standard', 'config_control_design', 1994, #71 ) ;
#241 = FACE_OUTER_BOUND ( 'NONE', #287, .T. ) ;
#242 = EDGE_CURVE ( 'NONE', #263, #201, #131, .T. ) ;
#243 = LINE ( 'NONE', #98, #167 ) ;
#244 = EDGE_LOOP ( 'NONE', ( #151, #128, #32, #168 ) ) ;
#245 = PERSON_AND_ORGANIZATION ( #22, #258 ) ;
#246 = ORIENTED_EDGE ( 'NONE', *, *, #124, .F. ) ;
#247 = CC_DESIGN_DATE_AND_TIME_ASSIGNMENT ( #73, #123, ( #273 ) ) ;
#248 = DIRECTION ( 'NONE',  ( 4.275831445896959482E-31, 1.000000000000000000, 1.224646799147353207E-16 ) ) ;
#249 = DIRECTION ( 'NONE',  ( 0.000000000000000000, 1.000000000000000000, 0.000000000000000000 ) ) ;
#250 = ORIENTED_EDGE ( 'NONE', *, *, #72, .T. ) ;
#251 = DIRECTION ( 'NONE',  ( -4.275831445896958607E-31, -1.000000000000000000, -1.224646799147353207E-16 ) ) ;
#252 = DIRECTION ( 'NONE',  ( -3.491481338843133355E-15, 1.224646799147353207E-16, -1.000000000000000000 ) ) ;
#253 = AXIS2_PLACEMENT_3D ( 'NONE', #232, #93, #262 ) ;
#254 = VECTOR ( 'NONE', #43, 1000.000000000000000 ) ;
#255 = ORIENTED_EDGE ( 'NONE', *, *, #140, .T. ) ;
#256 = ADVANCED_FACE ( 'NONE', ( #4 ), #137, .T. ) ;
#257 = ADVANCED_BREP_SHAPE_REPRESENTATION ( '367647', ( #171, #59, #145 ), #357 ) ;
#258 = ORGANIZATION ( 'UNSPECIFIED', 'UNSPECIFIED', '' ) ;
#259 = AXIS2_PLACEMENT_3D ( 'NONE', #283, #134, #249 ) ;
#260 = ORIENTED_EDGE ( 'NONE', *, *, #124, .T. ) ;
#261 = VERTEX_POINT ( 'NONE', #322 ) ;
#262 = DIRECTION ( 'NONE',  ( 0.000000000000000000, 1.000000000000000000, 0.000000000000000000 ) ) ;
#263 = VERTEX_POINT ( 'NONE', #207 ) ;
#264 = CC_DESIGN_DATE_AND_TIME_ASSIGNMENT ( #206, #210, ( #7 ) ) ;
#265 = LOCAL_TIME ( 7, 54, 25.00000000000000000, #293 ) ;
#266 = PERSON_AND_ORGANIZATION_ROLE ( 'design_owner' ) ;
#267 = PERSON_AND_ORGANIZATION_ROLE ( 'creator' ) ;
#268 = DIRECTION ( 'NONE',  ( 4.275831445896958607E-31, 1.000000000000000000, 1.224646799147353207E-16 ) ) ;
#269 = DIRECTION ( 'NONE',  ( -3.491481338843133355E-15, 1.224646799147353207E-16, -1.000000000000000000 ) ) ;
#270 = APPROVAL_DATE_TIME ( #42, #203 ) ;
#271 = FACE_OUTER_BOUND ( 'NONE', #323, .T. ) ;
#272 = SECURITY_CLASSIFICATION_LEVEL ( 'unclassified' ) ;
#273 = PRODUCT_DEFINITION ( 'UNKNOWN', '', #229, #192 ) ;
#274 = CARTESIAN_POINT ( 'NONE',  ( 2.880472104545584703E-13, 5.999999999999990230, 82.50000000000000000 ) ) ;
#275 = ORIENTED_EDGE ( 'NONE', *, *, #91, .T. ) ;
#276 = CIRCLE ( 'NONE', #81, 5.799999999999998934 ) ;
#277 = DIRECTION ( 'NONE',  ( -3.491481338843133355E-15, 1.224646799147353207E-16, -1.000000000000000000 ) ) ;
#278 = VECTOR ( 'NONE', #277, 1000.000000000000000 ) ;
#279 = PLANE ( 'NONE',  #348 ) ;
#280 =( LENGTH_UNIT ( ) NAMED_UNIT ( * ) SI_UNIT ( .MILLI., .METRE. ) );
#281 = EDGE_LOOP ( 'NONE', ( #19, #235 ) ) ;
#282 = DIRECTION ( 'NONE',  ( 4.275831445896958607E-31, 1.000000000000000000, 1.224646799147353207E-16 ) ) ;
#283 = CARTESIAN_POINT ( 'NONE',  ( 2.897929511239800811E-13, -1.016456843292303150E-14, 83.00000000000000000 ) ) ;
#284 = DIRECTION ( 'NONE',  ( -3.491481338843133355E-15, 1.224646799147353207E-16, -1.000000000000000000 ) ) ;
#285 = LOCAL_TIME ( 7, 54, 25.00000000000000000, #65 ) ;
#286 = AXIS2_PLACEMENT_3D ( 'NONE', #150, #212, #183 ) ;
#287 = EDGE_LOOP ( 'NONE', ( #199, #3, #340, #309 ) ) ;
#288 = DIRECTION ( 'NONE',  ( -3.491481338843133355E-15, 1.224646799147353207E-16, -1.000000000000000000 ) ) ;
#289 = ORIENTED_EDGE ( 'NONE', *, *, #186, .F. ) ;
#290 = CC_DESIGN_PERSON_AND_ORGANIZATION_ASSIGNMENT ( #182, #298, ( #7 ) ) ;
#291 = VERTEX_POINT ( 'NONE', #148 ) ;
#292 = AXIS2_PLACEMENT_3D ( 'NONE', #136, #284, #282 ) ;
#293 = COORDINATED_UNIVERSAL_TIME_OFFSET ( 1, 0, .AHEAD. ) ;
#294 = ADVANCED_FACE ( 'NONE', ( #319 ), #225, .T. ) ;
#295 = LINE ( 'NONE', #120, #217 ) ;
#296 = AXIS2_PLACEMENT_3D ( 'NONE', #178, #156, #236 ) ;
#297 = DIRECTION ( 'NONE',  ( 0.000000000000000000, 1.000000000000000000, 0.000000000000000000 ) ) ;
#298 = PERSON_AND_ORGANIZATION_ROLE ( 'classification_officer' ) ;
#299 = ORIENTED_EDGE ( 'NONE', *, *, #45, .F. ) ;
#300 = PLANE ( 'NONE',  #292 ) ;
#301 = DIRECTION ( 'NONE',  ( -4.275831445896958607E-31, -1.000000000000000000, -1.224646799147353207E-16 ) ) ;
#302 = CIRCLE ( 'NONE', #96, 6.000000000000000000 ) ;
#303 = FACE_OUTER_BOUND ( 'NONE', #339, .T. ) ;
#304 = CARTESIAN_POINT ( 'NONE',  ( 6.982962677686250933E-16, -2.435834570415085380E-17, 0.1999999999999995393 ) ) ;
#305 = DIRECTION ( 'NONE',  ( -3.491481338843133355E-15, 1.224646799147353207E-16, -1.000000000000000000 ) ) ;
#306 = EDGE_LOOP ( 'NONE', ( #228, #5 ) ) ;
#307 = ADVANCED_FACE ( 'NONE', ( #57 ), #82, .T. ) ;
#308 = DIRECTION ( 'NONE',  ( 4.275831445896959482E-31, 1.000000000000000000, 1.224646799147353207E-16 ) ) ;
#309 = ORIENTED_EDGE ( 'NONE', *, *, #358, .F. ) ;
#310 = CIRCLE ( 'NONE', #51, 6.000000000000000000 ) ;
#311 = CLOSED_SHELL ( 'NONE', ( #256, #307, #341, #294, #85, #102 ) ) ;
#312 = ORIENTED_EDGE ( 'NONE', *, *, #94, .T. ) ;
#313 = DIRECTION ( 'NONE',  ( -3.491481338843133355E-15, 1.224646799147353207E-16, -1.000000000000000000 ) ) ;
#314 = CARTESIAN_POINT ( 'NONE',  ( 2.880472104545584703E-13, -1.010333609296566392E-14, 82.50000000000000000 ) ) ;
#315 = VERTEX_POINT ( 'NONE', #55 ) ;
#316 = CALENDAR_DATE ( 2023, 3, 4 ) ;
#317 = CONICAL_SURFACE ( 'NONE', #53, 6.000000000000000888, 0.7853981633974491672 ) ;
#318 = SHAPE_DEFINITION_REPRESENTATION ( #354, #257 ) ;
#319 = FACE_OUTER_BOUND ( 'NONE', #306, .T. ) ;
#320 = MECHANICAL_CONTEXT ( 'NONE', #329, 'mechanical' ) ;
#321 = EDGE_CURVE ( 'NONE', #261, #170, #215, .T. ) ;
#322 = CARTESIAN_POINT ( 'NONE',  ( 2.896242526987789965E-13, -5.500000000000009770, 83.00000000000000000 ) ) ;
#323 = EDGE_LOOP ( 'NONE', ( #86, #34, #169, #61 ) ) ;
#324 = ADVANCED_FACE ( 'NONE', ( #24 ), #300, .F. ) ;
#325 = DIRECTION ( 'NONE',  ( 1.000000000000000000, 0.000000000000000000, 0.000000000000000000 ) ) ;
#326 = CLOSED_SHELL ( 'NONE', ( #155, #193, #8, #26, #36, #324 ) ) ;
#327 =( NAMED_UNIT ( * ) SI_UNIT ( $, .STERADIAN. ) SOLID_ANGLE_UNIT ( ) );
#328 = VERTEX_POINT ( 'NONE', #362 ) ;
#329 = APPLICATION_CONTEXT ( 'configuration controlled 3d designs of mechanical parts and assemblies' ) ;
#330 = ORIENTED_EDGE ( 'NONE', *, *, #321, .F. ) ;
#331 = CARTESIAN_POINT ( 'NONE',  ( 8.728703347107833388E-14, 4.499279347985567350E-32, 25.00000000000000000 ) ) ;
#332 = CONICAL_SURFACE ( 'NONE', #14, 6.000000000000000888, 0.7853981633974491672 ) ;
#333 = CARTESIAN_POINT ( 'NONE',  ( 6.982962677686250933E-16, -2.435834570415085380E-17, 0.1999999999999995393 ) ) ;
#334 = DIRECTION ( 'NONE',  ( 4.275831445896959482E-31, 1.000000000000000000, 1.224646799147353207E-16 ) ) ;
#335 = DIRECTION ( 'NONE',  ( 0.000000000000000000, 1.000000000000000000, 0.000000000000000000 ) ) ;
#336 = EDGE_CURVE ( 'NONE', #315, #103, #310, .T. ) ;
#337 = AXIS2_PLACEMENT_3D ( 'NONE', #221, #29, #334 ) ;
#338 = AXIS2_PLACEMENT_3D ( 'NONE', #52, #166, #248 ) ;
#339 = EDGE_LOOP ( 'NONE', ( #260, #360 ) ) ;
#340 = ORIENTED_EDGE ( 'NONE', *, *, #94, .F. ) ;
#341 = ADVANCED_FACE ( 'NONE', ( #165 ), #163, .T. ) ;
#342 = CARTESIAN_POINT ( 'NONE',  ( 8.728703347107833388E-14, -3.061616997868383043E-15, 25.00000000000000000 ) ) ;
#343 = AXIS2_PLACEMENT_3D ( 'NONE', #331, #77, #251 ) ;
#344 = CIRCLE ( 'NONE', #109, 6.000000000000000000 ) ;
#345 = EDGE_CURVE ( 'NONE', #144, #67, #276, .T. ) ;
#346 = CALENDAR_DATE ( 2023, 3, 4 ) ;
#347 = DIRECTION ( 'NONE',  ( -3.491481338843133355E-15, 1.224646799147353207E-16, -1.000000000000000000 ) ) ;
#348 = AXIS2_PLACEMENT_3D ( 'NONE', #105, #187, #301 ) ;
#349 = CIRCLE ( 'NONE', #112, 6.000000000000000000 ) ;
#350 = PLANE ( 'NONE',  #138 ) ;
#351 = APPROVAL_STATUS ( 'not_yet_approved' ) ;
#352 = CARTESIAN_POINT ( 'NONE',  ( 8.728703347107833388E-14, -3.061616997868383043E-15, 25.00000000000000000 ) ) ;
#353 = APPROVAL_STATUS ( 'not_yet_approved' ) ;
#354 = PRODUCT_DEFINITION_SHAPE ( 'NONE', 'NONE',  #273 ) ;
#355 = CARTESIAN_POINT ( 'NONE',  ( 2.880472104545584703E-13, -1.010333609296566392E-14, 82.50000000000000000 ) ) ;
#356 = VERTEX_POINT ( 'NONE', #185 ) ;
#357 =( GEOMETRIC_REPRESENTATION_CONTEXT ( 3 ) GLOBAL_UNCERTAINTY_ASSIGNED_CONTEXT ( ( #223 ) ) GLOBAL_UNIT_ASSIGNED_CONTEXT ( ( #280, #194, #327 ) ) REPRESENTATION_CONTEXT ( 'NONE', 'WORKASPACE' ) );
#358 = EDGE_CURVE ( 'NONE', #170, #164, #80, .T. ) ;
#359 = DIRECTION ( 'NONE',  ( -4.172848212839010723E-31, -1.000000000000000000, -1.219727444046192488E-16 ) ) ;
#360 = ORIENTED_EDGE ( 'NONE', *, *, #242, .T. ) ;
#361 = DIRECTION ( 'NONE',  ( -3.491481338843133355E-15, 1.224646799147353207E-16, -1.000000000000000000 ) ) ;
#362 = CARTESIAN_POINT ( 'NONE',  ( 4.472745294891187854E-14, -6.000000000000003553, 25.00000000000000000 ) ) ;
#363 = VECTOR ( 'NONE', #132, 999.9999999999998863 ) ;
ENDSEC;
END-ISO-10303-21;
