ISO-10303-21;
HEADER;
FILE_DESCRIPTION (( 'STEP AP203' ),
    '1' );
FILE_NAME ('367644.step',
    '2023-03-31T11:57:15',
    ( '' ),
    ( '' ),
    'SwSTEP 2.0',
    'SolidWorks 2022',
    '' );
FILE_SCHEMA (( 'CONFIG_CONTROL_DESIGN' ));
ENDSEC;

DATA;
#1 = AXIS2_PLACEMENT_3D ( 'NONE', #45, #13, #342 ) ;
#2 = VERTEX_POINT ( 'NONE', #51 ) ;
#3 = AXIS2_PLACEMENT_3D ( 'NONE', #222, #344, #172 ) ;
#4 = CARTESIAN_POINT ( 'NONE',  ( 8.728703347107833388E-14, 4.499279347985567350E-32, 25.00000000000000000 ) ) ;
#5 = CARTESIAN_POINT ( 'NONE',  ( 8.728703347107833388E-14, 5.999999999999996447, 25.00000000000000000 ) ) ;
#6 = CC_DESIGN_PERSON_AND_ORGANIZATION_ASSIGNMENT ( #14, #78, ( #245 ) ) ;
#7 = EDGE_CURVE ( 'NONE', #111, #136, #75, .T. ) ;
#8 = CARTESIAN_POINT ( 'NONE',  ( 2.880472104545584703E-13, 5.999999999999988454, 82.50000000000000000 ) ) ;
#9 = LINE ( 'NONE', #71, #230 ) ;
#10 = APPROVAL_ROLE ( '' ) ;
#11 = ORIENTED_EDGE ( 'NONE', *, *, #223, .T. ) ;
#12 = AXIS2_PLACEMENT_3D ( 'NONE', #354, #89, #88 ) ;
#13 = DIRECTION ( 'NONE',  ( -3.491481338843133355E-15, 1.224646799147353207E-16, -1.000000000000000000 ) ) ;
#14 = PERSON_AND_ORGANIZATION ( #30, #55 ) ;
#15 = DIRECTION ( 'NONE',  ( -3.491481338843133355E-15, 1.224646799147353207E-16, -1.000000000000000000 ) ) ;
#16 = PRODUCT_DEFINITION_SHAPE ( 'NONE', 'NONE',  #112 ) ;
#17 = CIRCLE ( 'NONE', #293, 5.799999999999999822 ) ;
#18 = AXIS2_PLACEMENT_3D ( 'NONE', #117, #280, #35 ) ;
#19 = CARTESIAN_POINT ( 'NONE',  ( 6.982962677686238114E-16, -2.435834570415080758E-17, 0.1999999999999991784 ) ) ;
#20 = ORIENTED_EDGE ( 'NONE', *, *, #206, .F. ) ;
#21 = EDGE_CURVE ( 'NONE', #225, #303, #194, .T. ) ;
#22 = APPLICATION_PROTOCOL_DEFINITION ( 'international standard', 'config_control_design', 1994, #184 ) ;
#23 = DIRECTION ( 'NONE',  ( 0.000000000000000000, 1.000000000000000000, 0.000000000000000000 ) ) ;
#24 = ORIENTED_EDGE ( 'NONE', *, *, #212, .F. ) ;
#25 = CIRCLE ( 'NONE', #109, 6.000000000000000000 ) ;
#26 = AXIS2_PLACEMENT_3D ( 'NONE', #166, #87, #274 ) ;
#27 = ORIENTED_EDGE ( 'NONE', *, *, #64, .T. ) ;
#28 = CARTESIAN_POINT ( 'NONE',  ( 2.565498867538175514E-30, 6.000000000000000000, 7.347880794884119736E-16 ) ) ;
#29 = EDGE_LOOP ( 'NONE', ( #44, #42, #296, #120 ) ) ;
#30 = PERSON ( 'UNSPECIFIED', 'UNSPECIFIED', 'UNSPECIFIED', ('UNSPECIFIED'), ('UNSPECIFIED'), ('UNSPECIFIED') ) ;
#31 = DIRECTION ( 'NONE',  ( 0.000000000000000000, 1.000000000000000000, 0.000000000000000000 ) ) ;
#32 = ORIENTED_EDGE ( 'NONE', *, *, #255, .T. ) ;
#33 = ADVANCED_FACE ( 'NONE', ( #265 ), #115, .T. ) ;
#34 = DIRECTION ( 'NONE',  ( -3.491481338843133355E-15, 1.224646799147353207E-16, -1.000000000000000000 ) ) ;
#35 = DIRECTION ( 'NONE',  ( 0.000000000000000000, 1.000000000000000000, 0.000000000000000000 ) ) ;
#36 = APPROVAL_DATE_TIME ( #331, #231 ) ;
#37 = ADVANCED_FACE ( 'NONE', ( #201 ), #359, .T. ) ;
#38 = CALENDAR_DATE ( 2023, 31, 3 ) ;
#39 = CONICAL_SURFACE ( 'NONE', #332, 6.000000000000000000, 0.7853981633974499443 ) ;
#40 = DIRECTION ( 'NONE',  ( 3.491481338843133355E-15, -1.224646799147353207E-16, 1.000000000000000000 ) ) ;
#41 = PLANE ( 'NONE',  #269 ) ;
#42 = ORIENTED_EDGE ( 'NONE', *, *, #21, .T. ) ;
#43 = COORDINATED_UNIVERSAL_TIME_OFFSET ( 1, 0, .AHEAD. ) ;
#44 = ORIENTED_EDGE ( 'NONE', *, *, #196, .T. ) ;
#45 = CARTESIAN_POINT ( 'NONE',  ( 0.000000000000000000, 0.000000000000000000, 0.000000000000000000 ) ) ;
#46 = AXIS2_PLACEMENT_3D ( 'NONE', #217, #311, #249 ) ;
#47 = ORIENTED_EDGE ( 'NONE', *, *, #7, .T. ) ;
#48 = APPROVAL_DATE_TIME ( #193, #66 ) ;
#49 = FACE_OUTER_BOUND ( 'NONE', #307, .T. ) ;
#50 = VERTEX_POINT ( 'NONE', #357 ) ;
#51 = CARTESIAN_POINT ( 'NONE',  ( 4.472745294891187854E-14, -6.000000000000003553, 25.00000000000000000 ) ) ;
#52 = CALENDAR_DATE ( 2023, 31, 3 ) ;
#53 = EDGE_LOOP ( 'NONE', ( #314, #80 ) ) ;
#54 = AXIS2_PLACEMENT_3D ( 'NONE', #61, #267, #178 ) ;
#55 = ORGANIZATION ( 'UNSPECIFIED', 'UNSPECIFIED', '' ) ;
#56 = DATE_AND_TIME ( #271, #305 ) ;
#57 = EDGE_CURVE ( 'NONE', #218, #175, #59, .T. ) ;
#58 = ORIENTED_EDGE ( 'NONE', *, *, #92, .T. ) ;
#59 = LINE ( 'NONE', #272, #338 ) ;
#60 = LOCAL_TIME ( 13, 57, 15.00000000000000000, #298 ) ;
#61 = CARTESIAN_POINT ( 'NONE',  ( 2.880472104545584703E-13, -1.010333609296566392E-14, 82.50000000000000000 ) ) ;
#62 = APPROVAL_ROLE ( '' ) ;
#63 = MECHANICAL_CONTEXT ( 'NONE', #184, 'mechanical' ) ;
#64 = EDGE_CURVE ( 'NONE', #50, #136, #270, .T. ) ;
#65 = ORIENTED_EDGE ( 'NONE', *, *, #204, .F. ) ;
#66 = APPROVAL ( #104, 'UNSPECIFIED' ) ;
#67 = CC_DESIGN_PERSON_AND_ORGANIZATION_ASSIGNMENT ( #330, #333, ( #348 ) ) ;
#68 = CIRCLE ( 'NONE', #3, 6.000000000000000000 ) ;
#69 = LOCAL_TIME ( 13, 57, 15.00000000000000000, #289 ) ;
#70 = ORIENTED_EDGE ( 'NONE', *, *, #21, .F. ) ;
#71 = CARTESIAN_POINT ( 'NONE',  ( 6.982962677686212476E-16, -6.000000000000000000, 0.1999999999999984290 ) ) ;
#72 = DIRECTION ( 'NONE',  ( 3.491481338843133355E-15, -1.217917285207545432E-16, 1.000000000000000000 ) ) ;
#73 = EDGE_CURVE ( 'NONE', #119, #175, #161, .T. ) ;
#74 = ADVANCED_FACE ( 'NONE', ( #211 ), #86, .T. ) ;
#75 = LINE ( 'NONE', #251, #325 ) ;
#76 = CARTESIAN_POINT ( 'NONE',  ( -2.466354574662848092E-30, 8.603270578922441165E-32, -7.063920254203763409E-16 ) ) ;
#77 = AXIS2_PLACEMENT_3D ( 'NONE', #76, #328, #165 ) ;
#78 = PERSON_AND_ORGANIZATION_ROLE ( 'classification_officer' ) ;
#79 = DIRECTION ( 'NONE',  ( 4.275831445896958607E-31, 1.000000000000000000, 1.224646799147353207E-16 ) ) ;
#80 = ORIENTED_EDGE ( 'NONE', *, *, #215, .F. ) ;
#81 = PERSON_AND_ORGANIZATION ( #30, #55 ) ;
#82 = DIRECTION ( 'NONE',  ( 3.491481338843133355E-15, -1.224646799147353207E-16, 1.000000000000000000 ) ) ;
#83 = ORIENTED_EDGE ( 'NONE', *, *, #204, .T. ) ;
#84 = CARTESIAN_POINT ( 'NONE',  ( 0.000000000000000000, 0.000000000000000000, 0.000000000000000000 ) ) ;
#85 = AXIS2_PLACEMENT_3D ( 'NONE', #234, #129, #93 ) ;
#86 = CYLINDRICAL_SURFACE ( 'NONE', #90, 6.000000000000000000 ) ;
#87 = DIRECTION ( 'NONE',  ( -3.491481338843133355E-15, 1.224646799147353207E-16, -1.000000000000000000 ) ) ;
#88 = DIRECTION ( 'NONE',  ( 0.000000000000000000, 1.000000000000000000, 0.000000000000000000 ) ) ;
#89 = DIRECTION ( 'NONE',  ( -3.491481338843133355E-15, 1.224646799147353207E-16, -1.000000000000000000 ) ) ;
#90 = AXIS2_PLACEMENT_3D ( 'NONE', #84, #158, #182 ) ;
#91 = CARTESIAN_POINT ( 'NONE',  ( 8.728703347107833388E-14, -3.061616997868383043E-15, 25.00000000000000000 ) ) ;
#92 = EDGE_CURVE ( 'NONE', #218, #303, #244, .T. ) ;
#93 = DIRECTION ( 'NONE',  ( 0.000000000000000000, 1.000000000000000000, 0.000000000000000000 ) ) ;
#94 = MANIFOLD_SOLID_BREP ( 'Corps-Déplacer/Copier1[1]', #253 ) ;
#95 = SHAPE_DEFINITION_REPRESENTATION ( #16, #167 ) ;
#96 = VECTOR ( 'NONE', #157, 1000.000000000000000 ) ;
#97 = ADVANCED_FACE ( 'NONE', ( #279 ), #189, .F. ) ;
#98 = EDGE_LOOP ( 'NONE', ( #257, #11, #316, #143 ) ) ;
#99 = APPROVAL_STATUS ( 'not_yet_approved' ) ;
#100 = CIRCLE ( 'NONE', #308, 6.000000000000000000 ) ;
#101 = DIRECTION ( 'NONE',  ( 0.000000000000000000, 1.000000000000000000, 0.000000000000000000 ) ) ;
#102 = DIRECTION ( 'NONE',  ( -3.491481338843133355E-15, 1.224646799147353207E-16, -1.000000000000000000 ) ) ;
#103 = EDGE_LOOP ( 'NONE', ( #226, #47, #137, #65 ) ) ;
#104 = APPROVAL_STATUS ( 'not_yet_approved' ) ;
#105 = ORIENTED_EDGE ( 'NONE', *, *, #196, .F. ) ;
#106 = DIRECTION ( 'NONE',  ( 4.275831445896959482E-31, 1.000000000000000000, 1.224646799147353207E-16 ) ) ;
#107 = EDGE_CURVE ( 'NONE', #175, #119, #100, .T. ) ;
#108 = DIRECTION ( 'NONE',  ( -3.491481338843133355E-15, 1.224646799147353207E-16, -1.000000000000000000 ) ) ;
#109 = AXIS2_PLACEMENT_3D ( 'NONE', #300, #174, #23 ) ;
#110 = CARTESIAN_POINT ( 'NONE',  ( 2.897929511239800811E-13, 4.124339402320093095E-32, 83.00000000000000000 ) ) ;
#111 = VERTEX_POINT ( 'NONE', #247 ) ;
#112 = PRODUCT_DEFINITION ( 'UNKNOWN', '', #233, #302 ) ;
#113 = AXIS2_PLACEMENT_3D ( 'NONE', #349, #114, #31 ) ;
#114 = DIRECTION ( 'NONE',  ( -3.491481338843133355E-15, 1.224646799147353207E-16, -1.000000000000000000 ) ) ;
#115 = PLANE ( 'NONE',  #164 ) ;
#116 = AXIS2_PLACEMENT_3D ( 'NONE', #315, #171, #168 ) ;
#117 = CARTESIAN_POINT ( 'NONE',  ( 2.880472104545584703E-13, -1.010333609296566392E-14, 82.50000000000000000 ) ) ;
#118 = DIRECTION ( 'NONE',  ( 3.491481338843133355E-15, -1.217917285207545432E-16, 1.000000000000000000 ) ) ;
#119 = VERTEX_POINT ( 'NONE', #324 ) ;
#120 = ORIENTED_EDGE ( 'NONE', *, *, #255, .F. ) ;
#121 = APPROVAL_PERSON_ORGANIZATION ( #243, #160, #62 ) ;
#122 = CYLINDRICAL_SURFACE ( 'NONE', #26, 6.000000000000000000 ) ;
#123 = DIRECTION ( 'NONE',  ( -4.252335473556634944E-31, -1.000000000000000000, -1.217917285207545432E-16 ) ) ;
#124 = DATE_AND_TIME ( #173, #239 ) ;
#125 = VERTEX_POINT ( 'NONE', #241 ) ;
#126 = COORDINATED_UNIVERSAL_TIME_OFFSET ( 1, 0, .AHEAD. ) ;
#127 =( GEOMETRIC_REPRESENTATION_CONTEXT ( 3 ) GLOBAL_UNCERTAINTY_ASSIGNED_CONTEXT ( ( #290 ) ) GLOBAL_UNIT_ASSIGNED_CONTEXT ( ( #242, #138, #329 ) ) REPRESENTATION_CONTEXT ( 'NONE', 'WORKASPACE' ) );
#128 = CALENDAR_DATE ( 2023, 31, 3 ) ;
#129 = DIRECTION ( 'NONE',  ( -3.491481338843133355E-15, 1.224646799147353207E-16, -1.000000000000000000 ) ) ;
#130 = AXIS2_PLACEMENT_3D ( 'NONE', #19, #227, #219 ) ;
#131 = SECURITY_CLASSIFICATION_LEVEL ( 'unclassified' ) ;
#132 = APPLICATION_CONTEXT ( 'configuration controlled 3d designs of mechanical parts and assemblies' ) ;
#133 = DIRECTION ( 'NONE',  ( 0.000000000000000000, 0.000000000000000000, 1.000000000000000000 ) ) ;
#134 = CIRCLE ( 'NONE', #18, 5.999999999999999112 ) ;
#135 = AXIS2_PLACEMENT_3D ( 'NONE', #216, #133, #347 ) ;
#136 = VERTEX_POINT ( 'NONE', #232 ) ;
#137 = ORIENTED_EDGE ( 'NONE', *, *, #162, .F. ) ;
#138 =( NAMED_UNIT ( * ) PLANE_ANGLE_UNIT ( ) SI_UNIT ( $, .RADIAN. ) );
#139 = CARTESIAN_POINT ( 'NONE',  ( 7.347880794884094098E-16, -6.000000000000000000, -7.347880794884144388E-16 ) ) ;
#140 = CARTESIAN_POINT ( 'NONE',  ( 2.897929511239800811E-13, -1.016456843292303150E-14, 83.00000000000000000 ) ) ;
#141 = LINE ( 'NONE', #8, #224 ) ;
#142 = ORIENTED_EDGE ( 'NONE', *, *, #229, .F. ) ;
#143 = ORIENTED_EDGE ( 'NONE', *, *, #73, .F. ) ;
#144 = CIRCLE ( 'NONE', #352, 6.000000000000000000 ) ;
#145 = ORIENTED_EDGE ( 'NONE', *, *, #207, .T. ) ;
#146 = CC_DESIGN_APPROVAL ( #231, ( #245 ) ) ;
#147 = DIRECTION ( 'NONE',  ( 4.275831445896958607E-31, 1.000000000000000000, 1.224646799147353207E-16 ) ) ;
#148 = CARTESIAN_POINT ( 'NONE',  ( 6.982962677686238114E-16, -2.435834570415080758E-17, 0.1999999999999991784 ) ) ;
#149 = PERSON_AND_ORGANIZATION ( #30, #55 ) ;
#150 = DIRECTION ( 'NONE',  ( 2.555445736705811640E-15, 0.7071067811865486830, 0.7071067811865464625 ) ) ;
#151 = CARTESIAN_POINT ( 'NONE',  ( 0.000000000000000000, 0.000000000000000000, 0.000000000000000000 ) ) ;
#152 = EDGE_CURVE ( 'NONE', #303, #119, #326, .T. ) ;
#153 = DATE_AND_TIME ( #52, #60 ) ;
#154 = ORIENTED_EDGE ( 'NONE', *, *, #223, .F. ) ;
#155 = CARTESIAN_POINT ( 'NONE',  ( 7.347880794884094098E-16, -6.000000000000000000, -7.347880794884144388E-16 ) ) ;
#156 = ORIENTED_EDGE ( 'NONE', *, *, #64, .F. ) ;
#157 = DIRECTION ( 'NONE',  ( -3.491481338843133355E-15, 1.224646799147353207E-16, -1.000000000000000000 ) ) ;
#158 = DIRECTION ( 'NONE',  ( -3.491481338843133355E-15, 1.224646799147353207E-16, -1.000000000000000000 ) ) ;
#159 = DATE_TIME_ROLE ( 'creation_date' ) ;
#160 = APPROVAL ( #99, 'UNSPECIFIED' ) ;
#161 = CIRCLE ( 'NONE', #113, 6.000000000000000000 ) ;
#162 = EDGE_CURVE ( 'NONE', #299, #136, #144, .T. ) ;
#163 = EDGE_LOOP ( 'NONE', ( #105, #142 ) ) ;
#164 = AXIS2_PLACEMENT_3D ( 'NONE', #355, #40, #334 ) ;
#165 = DIRECTION ( 'NONE',  ( -4.252335473556634944E-31, -1.000000000000000000, -1.217917285207545432E-16 ) ) ;
#166 = CARTESIAN_POINT ( 'NONE',  ( 0.000000000000000000, 0.000000000000000000, 0.000000000000000000 ) ) ;
#167 = ADVANCED_BREP_SHAPE_REPRESENTATION ( '367644', ( #94, #312, #135 ), #127 ) ;
#168 = DIRECTION ( 'NONE',  ( -4.172848212839010723E-31, -1.000000000000000000, -1.219727444046192488E-16 ) ) ;
#169 = APPROVAL_ROLE ( '' ) ;
#170 = VERTEX_POINT ( 'NONE', #195 ) ;
#171 = DIRECTION ( 'NONE',  ( 3.491481338843133355E-15, -1.217917285207545432E-16, 1.000000000000000000 ) ) ;
#172 = DIRECTION ( 'NONE',  ( 0.000000000000000000, 1.000000000000000000, 0.000000000000000000 ) ) ;
#173 = CALENDAR_DATE ( 2023, 31, 3 ) ;
#174 = DIRECTION ( 'NONE',  ( -3.491481338843133355E-15, 1.224646799147353207E-16, -1.000000000000000000 ) ) ;
#175 = VERTEX_POINT ( 'NONE', #5 ) ;
#176 = CC_DESIGN_APPROVAL ( #160, ( #112 ) ) ;
#177 = COORDINATED_UNIVERSAL_TIME_OFFSET ( 1, 0, .AHEAD. ) ;
#178 = DIRECTION ( 'NONE',  ( 0.000000000000000000, 1.000000000000000000, 0.000000000000000000 ) ) ;
#179 = FACE_OUTER_BOUND ( 'NONE', #29, .T. ) ;
#180 = ORIENTED_EDGE ( 'NONE', *, *, #162, .T. ) ;
#181 = VECTOR ( 'NONE', #208, 1000.000000000000000 ) ;
#182 = DIRECTION ( 'NONE',  ( 4.275831445896959482E-31, 1.000000000000000000, 1.224646799147353207E-16 ) ) ;
#183 = EDGE_LOOP ( 'NONE', ( #341, #323, #83, #24 ) ) ;
#184 = APPLICATION_CONTEXT ( 'configuration controlled 3d designs of mechanical parts and assemblies' ) ;
#185 = EDGE_CURVE ( 'NONE', #125, #111, #17, .T. ) ;
#186 = CIRCLE ( 'NONE', #46, 5.500000000000000000 ) ;
#187 = APPROVAL_PERSON_ORGANIZATION ( #246, #231, #169 ) ;
#188 = APPLICATION_PROTOCOL_DEFINITION ( 'international standard', 'config_control_design', 1994, #132 ) ;
#189 = PLANE ( 'NONE',  #214 ) ;
#190 = DIRECTION ( 'NONE',  ( -2.468850131082267710E-15, 0.7071067811865470176, -0.7071067811865481278 ) ) ;
#191 = FACE_OUTER_BOUND ( 'NONE', #103, .T. ) ;
#192 = ORIENTED_EDGE ( 'NONE', *, *, #152, .T. ) ;
#193 = DATE_AND_TIME ( #128, #309 ) ;
#194 = LINE ( 'NONE', #221, #181 ) ;
#195 = CARTESIAN_POINT ( 'NONE',  ( 2.897929511239800811E-13, 5.499999999999989342, 83.00000000000000000 ) ) ;
#196 = EDGE_CURVE ( 'NONE', #170, #225, #186, .T. ) ;
#197 = AXIS2_PLACEMENT_3D ( 'NONE', #140, #102, #101 ) ;
#198 = FACE_OUTER_BOUND ( 'NONE', #53, .T. ) ;
#199 = DIRECTION ( 'NONE',  ( -4.275831445896958607E-31, -1.000000000000000000, -1.224646799147353207E-16 ) ) ;
#200 = EDGE_LOOP ( 'NONE', ( #306, #351 ) ) ;
#201 = FACE_OUTER_BOUND ( 'NONE', #203, .T. ) ;
#202 = ORIENTED_EDGE ( 'NONE', *, *, #252, .T. ) ;
#203 = EDGE_LOOP ( 'NONE', ( #70, #236, #32, #154 ) ) ;
#204 = EDGE_CURVE ( 'NONE', #125, #299, #9, .T. ) ;
#205 = VECTOR ( 'NONE', #34, 1000.000000000000000 ) ;
#206 = EDGE_CURVE ( 'NONE', #50, #2, #25, .T. ) ;
#207 = EDGE_CURVE ( 'NONE', #2, #299, #297, .T. ) ;
#208 = DIRECTION ( 'NONE',  ( -2.382254525458719047E-15, -0.7071067811865467956, -0.7071067811865483499 ) ) ;
#209 = ADVANCED_FACE ( 'NONE', ( #259 ), #266, .F. ) ;
#210 = ORIENTED_EDGE ( 'NONE', *, *, #57, .F. ) ;
#211 = FACE_OUTER_BOUND ( 'NONE', #321, .T. ) ;
#212 = EDGE_CURVE ( 'NONE', #136, #299, #268, .T. ) ;
#213 = ADVANCED_FACE ( 'NONE', ( #254 ), #235, .T. ) ;
#214 = AXIS2_PLACEMENT_3D ( 'NONE', #4, #82, #199 ) ;
#215 = EDGE_CURVE ( 'NONE', #111, #125, #238, .T. ) ;
#216 = CARTESIAN_POINT ( 'NONE',  ( 0.000000000000000000, 0.000000000000000000, 0.000000000000000000 ) ) ;
#217 = CARTESIAN_POINT ( 'NONE',  ( 2.897929511239800811E-13, -1.016456843292303150E-14, 83.00000000000000000 ) ) ;
#218 = VERTEX_POINT ( 'NONE', #273 ) ;
#219 = DIRECTION ( 'NONE',  ( -4.172848212839010723E-31, -1.000000000000000000, -1.219727444046192488E-16 ) ) ;
#220 = CARTESIAN_POINT ( 'NONE',  ( -1.282749433769087757E-30, 4.499279347985572824E-32, -3.673940397442059868E-16 ) ) ;
#221 = CARTESIAN_POINT ( 'NONE',  ( 2.887819985340468811E-13, -6.000000000000009770, 82.50000000000000000 ) ) ;
#222 = CARTESIAN_POINT ( 'NONE',  ( 8.728703347107833388E-14, -3.061616997868383043E-15, 25.00000000000000000 ) ) ;
#223 = EDGE_CURVE ( 'NONE', #303, #218, #134, .T. ) ;
#224 = VECTOR ( 'NONE', #190, 1000.000000000000000 ) ;
#225 = VERTEX_POINT ( 'NONE', #281 ) ;
#226 = ORIENTED_EDGE ( 'NONE', *, *, #185, .T. ) ;
#227 = DIRECTION ( 'NONE',  ( 3.491481338843133355E-15, -1.217917285207545432E-16, 1.000000000000000000 ) ) ;
#228 = ORIENTED_EDGE ( 'NONE', *, *, #212, .T. ) ;
#229 = EDGE_CURVE ( 'NONE', #225, #170, #318, .T. ) ;
#230 = VECTOR ( 'NONE', #262, 999.9999999999998863 ) ;
#231 = APPROVAL ( #250, 'UNSPECIFIED' ) ;
#232 = CARTESIAN_POINT ( 'NONE',  ( 4.399266486942349290E-14, 6.000000000000000000, 0.1999999999999999001 ) ) ;
#233 = PRODUCT_DEFINITION_FORMATION_WITH_SPECIFIED_SOURCE ( 'ANY', '', #348, .NOT_KNOWN. ) ;
#234 = CARTESIAN_POINT ( 'NONE',  ( 2.880472104545584703E-13, -1.010333609296566392E-14, 82.50000000000000000 ) ) ;
#235 = CYLINDRICAL_SURFACE ( 'NONE', #1, 6.000000000000000000 ) ;
#236 = ORIENTED_EDGE ( 'NONE', *, *, #229, .T. ) ;
#237 = DIRECTION ( 'NONE',  ( -3.491481338843133355E-15, 1.224646799147353207E-16, -1.000000000000000000 ) ) ;
#238 = CIRCLE ( 'NONE', #77, 5.799999999999999822 ) ;
#239 = LOCAL_TIME ( 13, 57, 15.00000000000000000, #43 ) ;
#240 = CARTESIAN_POINT ( 'NONE',  ( 1.884019100423067814E-13, -6.000000000000009770, 82.50000000000000000 ) ) ;
#241 = CARTESIAN_POINT ( 'NONE',  ( -4.932709149325696185E-30, -5.799999999999999822, -1.412784050840752682E-15 ) ) ;
#242 =( LENGTH_UNIT ( ) NAMED_UNIT ( * ) SI_UNIT ( .MILLI., .METRE. ) );
#243 = PERSON_AND_ORGANIZATION ( #30, #55 ) ;
#244 = CIRCLE ( 'NONE', #54, 5.999999999999999112 ) ;
#245 = SECURITY_CLASSIFICATION ( '', '', #131 ) ;
#246 = PERSON_AND_ORGANIZATION ( #30, #55 ) ;
#247 = CARTESIAN_POINT ( 'NONE',  ( 1.071689745381254023E-15, 5.799999999999999822, -3.755563391555109913E-30 ) ) ;
#248 = ADVANCED_FACE ( 'NONE', ( #191 ), #261, .T. ) ;
#249 = DIRECTION ( 'NONE',  ( 0.000000000000000000, 1.000000000000000000, 0.000000000000000000 ) ) ;
#250 = APPROVAL_STATUS ( 'not_yet_approved' ) ;
#251 = CARTESIAN_POINT ( 'NONE',  ( 1.433084347257038349E-15, 6.000000000000000000, 0.1999999999999999001 ) ) ;
#252 = EDGE_CURVE ( 'NONE', #2, #50, #68, .T. ) ;
#253 = CLOSED_SHELL ( 'NONE', ( #301, #345, #97, #213, #37, #209 ) ) ;
#254 = FACE_OUTER_BOUND ( 'NONE', #98, .T. ) ;
#255 = EDGE_CURVE ( 'NONE', #170, #218, #141, .T. ) ;
#256 = DIRECTION ( 'NONE',  ( -4.172848212839010723E-31, -1.000000000000000000, -1.219727444046192488E-16 ) ) ;
#257 = ORIENTED_EDGE ( 'NONE', *, *, #152, .F. ) ;
#258 = PERSON_AND_ORGANIZATION_ROLE ( 'creator' ) ;
#259 = FACE_OUTER_BOUND ( 'NONE', #163, .T. ) ;
#260 = CC_DESIGN_DATE_AND_TIME_ASSIGNMENT ( #124, #336, ( #245 ) ) ;
#261 = CONICAL_SURFACE ( 'NONE', #116, 6.000000000000000000, 0.7853981633974499443 ) ;
#262 = DIRECTION ( 'NONE',  ( 2.468850131082261399E-15, -0.7071067811865489050, 0.7071067811865462405 ) ) ;
#263 = ORIENTED_EDGE ( 'NONE', *, *, #252, .F. ) ;
#264 = ADVANCED_FACE ( 'NONE', ( #49 ), #291, .T. ) ;
#265 = FACE_OUTER_BOUND ( 'NONE', #292, .T. ) ;
#266 = PLANE ( 'NONE',  #304 ) ;
#267 = DIRECTION ( 'NONE',  ( -3.491481338843133355E-15, 1.224646799147353207E-16, -1.000000000000000000 ) ) ;
#268 = CIRCLE ( 'NONE', #130, 6.000000000000000000 ) ;
#269 = AXIS2_PLACEMENT_3D ( 'NONE', #220, #108, #79 ) ;
#270 = LINE ( 'NONE', #28, #205 ) ;
#271 = CALENDAR_DATE ( 2023, 31, 3 ) ;
#272 = CARTESIAN_POINT ( 'NONE',  ( 2.565498867538175514E-30, 6.000000000000000000, 7.347880794884119736E-16 ) ) ;
#273 = CARTESIAN_POINT ( 'NONE',  ( 2.880472104545584703E-13, 5.999999999999988454, 82.50000000000000000 ) ) ;
#274 = DIRECTION ( 'NONE',  ( 4.275831445896959482E-31, 1.000000000000000000, 1.224646799147353207E-16 ) ) ;
#275 = DIRECTION ( 'NONE',  ( -3.491481338843133355E-15, 1.224646799147353207E-16, -1.000000000000000000 ) ) ;
#276 = DIRECTION ( 'NONE',  ( -4.172848212839010723E-31, -1.000000000000000000, -1.219727444046192488E-16 ) ) ;
#277 = CLOSED_SHELL ( 'NONE', ( #248, #74, #264, #33, #287, #294 ) ) ;
#278 = APPROVAL_PERSON_ORGANIZATION ( #286, #66, #10 ) ;
#279 = FACE_OUTER_BOUND ( 'NONE', #200, .T. ) ;
#280 = DIRECTION ( 'NONE',  ( -3.491481338843133355E-15, 1.224646799147353207E-16, -1.000000000000000000 ) ) ;
#281 = CARTESIAN_POINT ( 'NONE',  ( 2.896242526987789965E-13, -5.500000000000009770, 83.00000000000000000 ) ) ;
#282 = FACE_OUTER_BOUND ( 'NONE', #350, .T. ) ;
#283 = CARTESIAN_POINT ( 'NONE',  ( 4.472745294891189117E-14, -6.000000000000000000, 0.1999999999999984290 ) ) ;
#284 = VECTOR ( 'NONE', #363, 1000.000000000000000 ) ;
#285 = CARTESIAN_POINT ( 'NONE',  ( -2.466354574662848092E-30, 8.603270578922441165E-32, -7.063920254203763409E-16 ) ) ;
#286 = PERSON_AND_ORGANIZATION ( #30, #55 ) ;
#287 = ADVANCED_FACE ( 'NONE', ( #313 ), #39, .T. ) ;
#288 = ORIENTED_EDGE ( 'NONE', *, *, #207, .F. ) ;
#289 = COORDINATED_UNIVERSAL_TIME_OFFSET ( 1, 0, .AHEAD. ) ;
#290 = UNCERTAINTY_MEASURE_WITH_UNIT (LENGTH_MEASURE( 1.000000000000000082E-05 ), #242, 'distance_accuracy_value', 'NONE');
#291 = CYLINDRICAL_SURFACE ( 'NONE', #339, 6.000000000000000000 ) ;
#292 = EDGE_LOOP ( 'NONE', ( #20, #263 ) ) ;
#293 = AXIS2_PLACEMENT_3D ( 'NONE', #285, #340, #123 ) ;
#294 = ADVANCED_FACE ( 'NONE', ( #198 ), #41, .T. ) ;
#295 = PRODUCT_RELATED_PRODUCT_CATEGORY ( 'detail', '', ( #348 ) ) ;
#296 = ORIENTED_EDGE ( 'NONE', *, *, #92, .F. ) ;
#297 = LINE ( 'NONE', #155, #96 ) ;
#298 = COORDINATED_UNIVERSAL_TIME_OFFSET ( 1, 0, .AHEAD. ) ;
#299 = VERTEX_POINT ( 'NONE', #283 ) ;
#300 = CARTESIAN_POINT ( 'NONE',  ( 8.728703347107833388E-14, -3.061616997868383043E-15, 25.00000000000000000 ) ) ;
#301 = ADVANCED_FACE ( 'NONE', ( #179 ), #360, .T. ) ;
#302 = DESIGN_CONTEXT ( 'detailed design', #132, 'design' ) ;
#303 = VERTEX_POINT ( 'NONE', #240 ) ;
#304 = AXIS2_PLACEMENT_3D ( 'NONE', #110, #15, #147 ) ;
#305 = LOCAL_TIME ( 13, 57, 15.00000000000000000, #177 ) ;
#306 = ORIENTED_EDGE ( 'NONE', *, *, #107, .T. ) ;
#307 = EDGE_LOOP ( 'NONE', ( #288, #202, #27, #228 ) ) ;
#308 = AXIS2_PLACEMENT_3D ( 'NONE', #91, #237, #337 ) ;
#309 = LOCAL_TIME ( 13, 57, 15.00000000000000000, #126 ) ;
#310 = CC_DESIGN_DATE_AND_TIME_ASSIGNMENT ( #56, #159, ( #112 ) ) ;
#311 = DIRECTION ( 'NONE',  ( -3.491481338843133355E-15, 1.224646799147353207E-16, -1.000000000000000000 ) ) ;
#312 = MANIFOLD_SOLID_BREP ( 'Corps-Déplacer/Copier1[2]', #277 ) ;
#313 = FACE_OUTER_BOUND ( 'NONE', #183, .T. ) ;
#314 = ORIENTED_EDGE ( 'NONE', *, *, #185, .F. ) ;
#315 = CARTESIAN_POINT ( 'NONE',  ( 6.982962677686238114E-16, -2.435834570415080758E-17, 0.1999999999999991784 ) ) ;
#316 = ORIENTED_EDGE ( 'NONE', *, *, #57, .T. ) ;
#317 = APPROVAL_DATE_TIME ( #153, #160 ) ;
#318 = CIRCLE ( 'NONE', #197, 5.500000000000000000 ) ;
#319 = CC_DESIGN_APPROVAL ( #66, ( #233 ) ) ;
#320 = DIRECTION ( 'NONE',  ( -3.491481338843133355E-15, 1.224646799147353207E-16, -1.000000000000000000 ) ) ;
#321 = EDGE_LOOP ( 'NONE', ( #327, #145, #180, #156 ) ) ;
#322 = PERSON_AND_ORGANIZATION_ROLE ( 'design_supplier' ) ;
#323 = ORIENTED_EDGE ( 'NONE', *, *, #215, .T. ) ;
#324 = CARTESIAN_POINT ( 'NONE',  ( 1.884019100423068319E-13, -6.000000000000003553, 25.00000000000000000 ) ) ;
#325 = VECTOR ( 'NONE', #150, 999.9999999999998863 ) ;
#326 = LINE ( 'NONE', #139, #284 ) ;
#327 = ORIENTED_EDGE ( 'NONE', *, *, #206, .T. ) ;
#328 = DIRECTION ( 'NONE',  ( 3.491481338843133355E-15, -1.217917285207545432E-16, 1.000000000000000000 ) ) ;
#329 =( NAMED_UNIT ( * ) SI_UNIT ( $, .STERADIAN. ) SOLID_ANGLE_UNIT ( ) );
#330 = PERSON_AND_ORGANIZATION ( #30, #55 ) ;
#331 = DATE_AND_TIME ( #38, #69 ) ;
#332 = AXIS2_PLACEMENT_3D ( 'NONE', #148, #72, #256 ) ;
#333 = PERSON_AND_ORGANIZATION_ROLE ( 'design_owner' ) ;
#334 = DIRECTION ( 'NONE',  ( -4.275831445896958607E-31, -1.000000000000000000, -1.224646799147353207E-16 ) ) ;
#335 = PERSON_AND_ORGANIZATION ( #30, #55 ) ;
#336 = DATE_TIME_ROLE ( 'classification_date' ) ;
#337 = DIRECTION ( 'NONE',  ( 0.000000000000000000, 1.000000000000000000, 0.000000000000000000 ) ) ;
#338 = VECTOR ( 'NONE', #275, 1000.000000000000000 ) ;
#339 = AXIS2_PLACEMENT_3D ( 'NONE', #151, #320, #106 ) ;
#340 = DIRECTION ( 'NONE',  ( 3.491481338843133355E-15, -1.217917285207545432E-16, 1.000000000000000000 ) ) ;
#341 = ORIENTED_EDGE ( 'NONE', *, *, #7, .F. ) ;
#342 = DIRECTION ( 'NONE',  ( 4.275831445896959482E-31, 1.000000000000000000, 1.224646799147353207E-16 ) ) ;
#343 = CC_DESIGN_PERSON_AND_ORGANIZATION_ASSIGNMENT ( #149, #258, ( #233 ) ) ;
#344 = DIRECTION ( 'NONE',  ( -3.491481338843133355E-15, 1.224646799147353207E-16, -1.000000000000000000 ) ) ;
#345 = ADVANCED_FACE ( 'NONE', ( #282 ), #122, .T. ) ;
#346 = ORIENTED_EDGE ( 'NONE', *, *, #107, .F. ) ;
#347 = DIRECTION ( 'NONE',  ( 1.000000000000000000, 0.000000000000000000, 0.000000000000000000 ) ) ;
#348 = PRODUCT ( '367644', '367644', '', ( #63 ) ) ;
#349 = CARTESIAN_POINT ( 'NONE',  ( 8.728703347107833388E-14, -3.061616997868383043E-15, 25.00000000000000000 ) ) ;
#350 = EDGE_LOOP ( 'NONE', ( #58, #192, #346, #210 ) ) ;
#351 = ORIENTED_EDGE ( 'NONE', *, *, #73, .T. ) ;
#352 = AXIS2_PLACEMENT_3D ( 'NONE', #361, #118, #276 ) ;
#353 = CC_DESIGN_SECURITY_CLASSIFICATION ( #245, ( #233 ) ) ;
#354 = CARTESIAN_POINT ( 'NONE',  ( 2.880472104545584703E-13, -1.010333609296566392E-14, 82.50000000000000000 ) ) ;
#355 = CARTESIAN_POINT ( 'NONE',  ( 8.728703347107833388E-14, 4.499279347985567350E-32, 25.00000000000000000 ) ) ;
#356 = PERSON_AND_ORGANIZATION_ROLE ( 'creator' ) ;
#357 = CARTESIAN_POINT ( 'NONE',  ( 8.728703347107833388E-14, 5.999999999999996447, 25.00000000000000000 ) ) ;
#358 = CC_DESIGN_PERSON_AND_ORGANIZATION_ASSIGNMENT ( #335, #322, ( #233 ) ) ;
#359 = CONICAL_SURFACE ( 'NONE', #12, 5.999999999999999112, 0.7853981633974473908 ) ;
#360 = CONICAL_SURFACE ( 'NONE', #85, 5.999999999999999112, 0.7853981633974473908 ) ;
#361 = CARTESIAN_POINT ( 'NONE',  ( 6.982962677686238114E-16, -2.435834570415080758E-17, 0.1999999999999991784 ) ) ;
#362 = CC_DESIGN_PERSON_AND_ORGANIZATION_ASSIGNMENT ( #81, #356, ( #112 ) ) ;
#363 = DIRECTION ( 'NONE',  ( -3.491481338843133355E-15, 1.224646799147353207E-16, -1.000000000000000000 ) ) ;
ENDSEC;
END-ISO-10303-21;
