ISO-10303-21;
HEADER;
FILE_DESCRIPTION (( 'STEP AP203' ),
    '1' );
FILE_NAME ('367643.step',
    '2023-03-31T11:57:15',
    ( '' ),
    ( '' ),
    'SwSTEP 2.0',
    'SolidWorks 2022',
    '' );
FILE_SCHEMA (( 'CONFIG_CONTROL_DESIGN' ));
ENDSEC;

DATA;
#1 = AXIS2_PLACEMENT_3D ( 'NONE', #69, #207, #44 ) ;
#2 = ORIENTED_EDGE ( 'NONE', *, *, #62, .T. ) ;
#3 = CARTESIAN_POINT ( 'NONE',  ( 2.880472104545584703E-13, -1.010333609296566392E-14, 82.50000000000000000 ) ) ;
#4 = ORIENTED_EDGE ( 'NONE', *, *, #227, .F. ) ;
#5 = CC_DESIGN_DATE_AND_TIME_ASSIGNMENT ( #296, #40, ( #24 ) ) ;
#6 = DIRECTION ( 'NONE',  ( -3.491481338843133355E-15, 1.224646799147353207E-16, -1.000000000000000000 ) ) ;
#7 = EDGE_LOOP ( 'NONE', ( #335, #166, #112, #312 ) ) ;
#8 = DATE_AND_TIME ( #260, #96 ) ;
#9 = FACE_OUTER_BOUND ( 'NONE', #139, .T. ) ;
#10 = APPROVAL_PERSON_ORGANIZATION ( #239, #202, #36 ) ;
#11 = CARTESIAN_POINT ( 'NONE',  ( 2.889044632139616415E-13, -7.000000000000009770, 82.50000000000000000 ) ) ;
#12 = CARTESIAN_POINT ( 'NONE',  ( 0.000000000000000000, 0.000000000000000000, 0.000000000000000000 ) ) ;
#13 = COORDINATED_UNIVERSAL_TIME_OFFSET ( 1, 0, .AHEAD. ) ;
#14 = EDGE_CURVE ( 'NONE', #256, #136, #176, .T. ) ;
#15 = APPROVAL_DATE_TIME ( #349, #202 ) ;
#16 = LOCAL_TIME ( 13, 57, 15.00000000000000000, #129 ) ;
#17 = PERSON_AND_ORGANIZATION_ROLE ( 'design_supplier' ) ;
#18 = PERSON_AND_ORGANIZATION_ROLE ( 'classification_officer' ) ;
#19 = ADVANCED_FACE ( 'NONE', ( #116 ), #123, .T. ) ;
#20 = AXIS2_PLACEMENT_3D ( 'NONE', #99, #306, #302 ) ;
#21 = AXIS2_PLACEMENT_3D ( 'NONE', #126, #213, #216 ) ;
#22 = ORIENTED_EDGE ( 'NONE', *, *, #152, .T. ) ;
#23 = VERTEX_POINT ( 'NONE', #175 ) ;
#24 = PRODUCT_DEFINITION ( 'UNKNOWN', '', #86, #283 ) ;
#25 = ORIENTED_EDGE ( 'NONE', *, *, #298, .F. ) ;
#26 = AXIS2_PLACEMENT_3D ( 'NONE', #178, #249, #282 ) ;
#27 = CARTESIAN_POINT ( 'NONE',  ( 9.426999614876461321E-14, 5.249159239316496154E-32, 27.00000000000000355 ) ) ;
#28 = VERTEX_POINT ( 'NONE', #155 ) ;
#29 = CARTESIAN_POINT ( 'NONE',  ( 0.000000000000000000, 0.000000000000000000, 0.000000000000000000 ) ) ;
#30 = CARTESIAN_POINT ( 'NONE',  ( 8.572527594031441635E-16, -6.999999999999999112, -8.572527594031500800E-16 ) ) ;
#31 = EDGE_LOOP ( 'NONE', ( #250, #279, #2, #226 ) ) ;
#32 = DIRECTION ( 'NONE',  ( -4.264559162571736407E-31, -1.000000000000000000, -1.200366690966094160E-16 ) ) ;
#33 = CYLINDRICAL_SURFACE ( 'NONE', #76, 6.999999999999999112 ) ;
#34 = APPROVAL_DATE_TIME ( #8, #244 ) ;
#35 = CIRCLE ( 'NONE', #20, 6.799999999999999822 ) ;
#36 = APPROVAL_ROLE ( '' ) ;
#37 = CARTESIAN_POINT ( 'NONE',  ( 6.982962677686260794E-16, -2.435834570415088769E-17, 0.1999999999999998168 ) ) ;
#38 = APPROVAL_DATE_TIME ( #301, #291 ) ;
#39 = COORDINATED_UNIVERSAL_TIME_OFFSET ( 1, 0, .AHEAD. ) ;
#40 = DATE_TIME_ROLE ( 'creation_date' ) ;
#41 = VECTOR ( 'NONE', #230, 1000.000000000000000 ) ;
#42 = CARTESIAN_POINT ( 'NONE',  ( 0.000000000000000000, 0.000000000000000000, 0.000000000000000000 ) ) ;
#43 =( GEOMETRIC_REPRESENTATION_CONTEXT ( 3 ) GLOBAL_UNCERTAINTY_ASSIGNED_CONTEXT ( ( #262 ) ) GLOBAL_UNIT_ASSIGNED_CONTEXT ( ( #174, #75, #109 ) ) REPRESENTATION_CONTEXT ( 'NONE', 'WORKASPACE' ) );
#44 = DIRECTION ( 'NONE',  ( -4.275831445896958607E-31, -1.000000000000000000, -1.224646799147353207E-16 ) ) ;
#45 = ADVANCED_FACE ( 'NONE', ( #98 ), #201, .F. ) ;
#46 = PERSON_AND_ORGANIZATION ( #362, #236 ) ;
#47 = VECTOR ( 'NONE', #6, 1000.000000000000000 ) ;
#48 = EDGE_CURVE ( 'NONE', #215, #361, #145, .T. ) ;
#49 = ORIENTED_EDGE ( 'NONE', *, *, #258, .F. ) ;
#50 = DIRECTION ( 'NONE',  ( -3.491481338843133355E-15, 1.224646799147353207E-16, -1.000000000000000000 ) ) ;
#51 = EDGE_LOOP ( 'NONE', ( #190, #110 ) ) ;
#52 = ORIENTED_EDGE ( 'NONE', *, *, #345, .F. ) ;
#53 = CARTESIAN_POINT ( 'NONE',  ( 0.000000000000000000, 0.000000000000000000, 0.000000000000000000 ) ) ;
#54 = CC_DESIGN_PERSON_AND_ORGANIZATION_ASSIGNMENT ( #46, #17, ( #86 ) ) ;
#55 = ORIENTED_EDGE ( 'NONE', *, *, #14, .T. ) ;
#56 = VECTOR ( 'NONE', #91, 1000.000000000000000 ) ;
#57 = CC_DESIGN_APPROVAL ( #244, ( #210 ) ) ;
#58 = CYLINDRICAL_SURFACE ( 'NONE', #338, 6.999999999999999112 ) ;
#59 = DIRECTION ( 'NONE',  ( -3.491481338843133355E-15, 1.224646799147353207E-16, -1.000000000000000000 ) ) ;
#60 = ORIENTED_EDGE ( 'NONE', *, *, #180, .T. ) ;
#61 = DIRECTION ( 'NONE',  ( -3.491481338843133355E-15, 1.224646799147353207E-16, -1.000000000000000000 ) ) ;
#62 = EDGE_CURVE ( 'NONE', #287, #255, #238, .T. ) ;
#63 = FACE_OUTER_BOUND ( 'NONE', #317, .T. ) ;
#64 = EDGE_CURVE ( 'NONE', #80, #287, #35, .T. ) ;
#65 = CARTESIAN_POINT ( 'NONE',  ( 9.426999614876461321E-14, 6.999999999999995559, 27.00000000000000355 ) ) ;
#66 = CC_DESIGN_PERSON_AND_ORGANIZATION_ASSIGNMENT ( #352, #18, ( #210 ) ) ;
#67 = APPROVAL_ROLE ( '' ) ;
#68 = DIRECTION ( 'NONE',  ( 2.468850131082266527E-15, -0.7071067811865473507, 0.7071067811865477948 ) ) ;
#69 = CARTESIAN_POINT ( 'NONE',  ( 9.426999614876461321E-14, 5.249159239316496154E-32, 27.00000000000000355 ) ) ;
#70 = CIRCLE ( 'NONE', #355, 7.000000000000000000 ) ;
#71 = CARTESIAN_POINT ( 'NONE',  ( 6.982962677686231212E-16, -7.000000000000000000, 0.1999999999999989841 ) ) ;
#72 = APPLICATION_CONTEXT ( 'configuration controlled 3d designs of mechanical parts and assemblies' ) ;
#73 = CIRCLE ( 'NONE', #164, 6.999999999999999112 ) ;
#74 = ADVANCED_FACE ( 'NONE', ( #351 ), #33, .T. ) ;
#75 =( NAMED_UNIT ( * ) PLANE_ANGLE_UNIT ( ) SI_UNIT ( $, .RADIAN. ) );
#76 = AXIS2_PLACEMENT_3D ( 'NONE', #42, #273, #124 ) ;
#77 = ORIENTED_EDGE ( 'NONE', *, *, #64, .F. ) ;
#78 = AXIS2_PLACEMENT_3D ( 'NONE', #193, #320, #170 ) ;
#79 = EDGE_CURVE ( 'NONE', #142, #82, #271, .T. ) ;
#80 = VERTEX_POINT ( 'NONE', #122 ) ;
#81 = DIRECTION ( 'NONE',  ( 0.000000000000000000, 1.000000000000000000, 0.000000000000000000 ) ) ;
#82 = VERTEX_POINT ( 'NONE', #353 ) ;
#83 = DIRECTION ( 'NONE',  ( -3.491481338843133355E-15, 1.224646799147353207E-16, -1.000000000000000000 ) ) ;
#84 = ORIENTED_EDGE ( 'NONE', *, *, #196, .T. ) ;
#85 = CIRCLE ( 'NONE', #308, 7.000000000000000000 ) ;
#86 = PRODUCT_DEFINITION_FORMATION_WITH_SPECIFIED_SOURCE ( 'ANY', '', #118, .NOT_KNOWN. ) ;
#87 = CARTESIAN_POINT ( 'NONE',  ( 2.993082012127870849E-30, 6.999999999999999112, 8.572527594031472204E-16 ) ) ;
#88 = EDGE_LOOP ( 'NONE', ( #134, #333, #341, #219 ) ) ;
#89 = DIRECTION ( 'NONE',  ( 2.555445736705815979E-15, 0.7071067811865471286, 0.7071067811865479058 ) ) ;
#90 = PERSON_AND_ORGANIZATION ( #362, #236 ) ;
#91 = DIRECTION ( 'NONE',  ( -3.491481338843133355E-15, 1.224646799147353207E-16, -1.000000000000000000 ) ) ;
#92 = CC_DESIGN_PERSON_AND_ORGANIZATION_ASSIGNMENT ( #199, #194, ( #118 ) ) ;
#93 = CARTESIAN_POINT ( 'NONE',  ( 1.555549027171776258E-15, 7.000000000000000000, 0.2000000000000006495 ) ) ;
#94 = DIRECTION ( 'NONE',  ( 0.000000000000000000, 1.000000000000000000, 0.000000000000000000 ) ) ;
#95 = CC_DESIGN_PERSON_AND_ORGANIZATION_ASSIGNMENT ( #209, #309, ( #86 ) ) ;
#96 = LOCAL_TIME ( 13, 57, 15.00000000000000000, #39 ) ;
#97 = MANIFOLD_SOLID_BREP ( 'Corps-Déplacer/Copier1[2]', #354 ) ;
#98 = FACE_OUTER_BOUND ( 'NONE', #363, .T. ) ;
#99 = CARTESIAN_POINT ( 'NONE',  ( -2.986224913337669644E-30, 1.041671023416217616E-31, -8.552888082532684457E-16 ) ) ;
#100 = AXIS2_PLACEMENT_3D ( 'NONE', #103, #334, #131 ) ;
#101 = AXIS2_PLACEMENT_3D ( 'NONE', #257, #83, #111 ) ;
#102 = DIRECTION ( 'NONE',  ( -3.491481338843133355E-15, 1.224646799147353207E-16, -1.000000000000000000 ) ) ;
#103 = CARTESIAN_POINT ( 'NONE',  ( -2.986224913337669644E-30, 1.041671023416217616E-31, -8.552888082532684457E-16 ) ) ;
#104 = ORIENTED_EDGE ( 'NONE', *, *, #48, .F. ) ;
#105 = ORIENTED_EDGE ( 'NONE', *, *, #241, .T. ) ;
#106 = LOCAL_TIME ( 13, 57, 15.00000000000000000, #229 ) ;
#107 = ORIENTED_EDGE ( 'NONE', *, *, #345, .T. ) ;
#108 = CARTESIAN_POINT ( 'NONE',  ( 4.834139896766977229E-14, -7.000000000000000888, 0.1999999999999989841 ) ) ;
#109 =( NAMED_UNIT ( * ) SI_UNIT ( $, .STERADIAN. ) SOLID_ANGLE_UNIT ( ) );
#110 = ORIENTED_EDGE ( 'NONE', *, *, #267, .F. ) ;
#111 = DIRECTION ( 'NONE',  ( 0.000000000000000000, 1.000000000000000000, 0.000000000000000000 ) ) ;
#112 = ORIENTED_EDGE ( 'NONE', *, *, #48, .T. ) ;
#113 = AXIS2_PLACEMENT_3D ( 'NONE', #224, #59, #318 ) ;
#114 = CYLINDRICAL_SURFACE ( 'NONE', #278, 6.999999999999999112 ) ;
#115 = CARTESIAN_POINT ( 'NONE',  ( 2.880472104545584703E-13, 6.999999999999988454, 82.50000000000000000 ) ) ;
#116 = FACE_OUTER_BOUND ( 'NONE', #223, .T. ) ;
#117 = DIRECTION ( 'NONE',  ( -4.264559162571736407E-31, -1.000000000000000000, -1.200366690966094160E-16 ) ) ;
#118 = PRODUCT ( '367643', '367643', '', ( #140 ) ) ;
#119 = DIRECTION ( 'NONE',  ( 4.275831445896958607E-31, 1.000000000000000000, 1.224646799147353207E-16 ) ) ;
#120 = AXIS2_PLACEMENT_3D ( 'NONE', #359, #102, #81 ) ;
#121 = DIRECTION ( 'NONE',  ( 0.000000000000000000, 1.000000000000000000, 0.000000000000000000 ) ) ;
#122 = CARTESIAN_POINT ( 'NONE',  ( 1.194154425295991143E-15, 6.799999999999999822, -2.710505431214175237E-17 ) ) ;
#123 = CONICAL_SURFACE ( 'NONE', #277, 6.999999999999999112, 0.7853981633974466137 ) ;
#124 = DIRECTION ( 'NONE',  ( 4.275831445896958607E-31, 1.000000000000000000, 1.224646799147353207E-16 ) ) ;
#125 = CIRCLE ( 'NONE', #78, 6.500000000000000888 ) ;
#126 = CARTESIAN_POINT ( 'NONE',  ( 0.000000000000000000, 0.000000000000000000, 0.000000000000000000 ) ) ;
#127 = SECURITY_CLASSIFICATION_LEVEL ( 'unclassified' ) ;
#128 = DIRECTION ( 'NONE',  ( -3.491481338843133355E-15, 1.224646799147353207E-16, -1.000000000000000000 ) ) ;
#129 = COORDINATED_UNIVERSAL_TIME_OFFSET ( 1, 0, .AHEAD. ) ;
#130 = DIRECTION ( 'NONE',  ( 4.275831445896958607E-31, 1.000000000000000000, 1.224646799147353207E-16 ) ) ;
#131 = DIRECTION ( 'NONE',  ( -4.252335473556635820E-31, -1.000000000000000000, -1.217917285207545432E-16 ) ) ;
#132 = CIRCLE ( 'NONE', #225, 6.999999999999999112 ) ;
#133 = FACE_OUTER_BOUND ( 'NONE', #281, .T. ) ;
#134 = ORIENTED_EDGE ( 'NONE', *, *, #241, .F. ) ;
#135 = CC_DESIGN_DATE_AND_TIME_ASSIGNMENT ( #292, #169, ( #210 ) ) ;
#136 = VERTEX_POINT ( 'NONE', #356 ) ;
#137 = CIRCLE ( 'NONE', #100, 6.799999999999999822 ) ;
#138 = EDGE_LOOP ( 'NONE', ( #22, #221, #160, #104 ) ) ;
#139 = EDGE_LOOP ( 'NONE', ( #290, #105, #192, #4 ) ) ;
#140 = MECHANICAL_CONTEXT ( 'NONE', #72, 'mechanical' ) ;
#141 = CARTESIAN_POINT ( 'NONE',  ( 6.982962677686260794E-16, -2.435834570415088769E-17, 0.1999999999999998168 ) ) ;
#142 = VERTEX_POINT ( 'NONE', #205 ) ;
#143 = PERSON_AND_ORGANIZATION ( #362, #236 ) ;
#144 = DIRECTION ( 'NONE',  ( 3.491481338843133355E-15, -1.217917285207545432E-16, 1.000000000000000000 ) ) ;
#145 = LINE ( 'NONE', #276, #247 ) ;
#146 = LOCAL_TIME ( 13, 57, 15.00000000000000000, #13 ) ;
#147 = SHAPE_DEFINITION_REPRESENTATION ( #234, #211 ) ;
#148 = CARTESIAN_POINT ( 'NONE',  ( 8.572527594031441635E-16, -6.999999999999999112, -8.572527594031500800E-16 ) ) ;
#149 = LINE ( 'NONE', #115, #41 ) ;
#150 = APPROVAL_ROLE ( '' ) ;
#151 = FACE_OUTER_BOUND ( 'NONE', #51, .T. ) ;
#152 = EDGE_CURVE ( 'NONE', #215, #23, #73, .T. ) ;
#153 = CALENDAR_DATE ( 2023, 31, 3 ) ;
#154 = APPROVAL_STATUS ( 'not_yet_approved' ) ;
#155 = CARTESIAN_POINT ( 'NONE',  ( 1.920158560610646878E-13, -7.000000000000002665, 27.00000000000000355 ) ) ;
#156 = ADVANCED_FACE ( 'NONE', ( #240 ), #327, .F. ) ;
#157 = LOCAL_TIME ( 13, 57, 15.00000000000000000, #237 ) ;
#158 = ADVANCED_FACE ( 'NONE', ( #328 ), #58, .T. ) ;
#159 = VECTOR ( 'NONE', #89, 1000.000000000000000 ) ;
#160 = ORIENTED_EDGE ( 'NONE', *, *, #298, .T. ) ;
#161 = ORIENTED_EDGE ( 'NONE', *, *, #233, .T. ) ;
#162 = VERTEX_POINT ( 'NONE', #65 ) ;
#163 = DIRECTION ( 'NONE',  ( -3.491481338843133355E-15, 1.224646799147353207E-16, -1.000000000000000000 ) ) ;
#164 = AXIS2_PLACEMENT_3D ( 'NONE', #329, #350, #94 ) ;
#165 = ORIENTED_EDGE ( 'NONE', *, *, #14, .F. ) ;
#166 = ORIENTED_EDGE ( 'NONE', *, *, #267, .T. ) ;
#167 = CARTESIAN_POINT ( 'NONE',  ( -5.877813035356181756E-30, -6.799999999999999822, -1.683472562194399281E-15 ) ) ;
#168 = CARTESIAN_POINT ( 'NONE',  ( 6.982962677686260794E-16, -2.435834570415088769E-17, 0.1999999999999998168 ) ) ;
#169 = DATE_TIME_ROLE ( 'classification_date' ) ;
#170 = DIRECTION ( 'NONE',  ( 0.000000000000000000, 1.000000000000000000, 0.000000000000000000 ) ) ;
#171 = AXIS2_PLACEMENT_3D ( 'NONE', #295, #231, #197 ) ;
#172 = DIRECTION ( 'NONE',  ( 0.000000000000000000, 1.000000000000000000, 0.000000000000000000 ) ) ;
#173 = DIRECTION ( 'NONE',  ( -3.491481338843133355E-15, 1.224646799147353207E-16, -1.000000000000000000 ) ) ;
#174 =( LENGTH_UNIT ( ) NAMED_UNIT ( * ) SI_UNIT ( .MILLI., .METRE. ) );
#175 = CARTESIAN_POINT ( 'NONE',  ( 4.834139896766974705E-14, -7.000000000000002665, 27.00000000000000355 ) ) ;
#176 = CIRCLE ( 'NONE', #358, 6.500000000000000888 ) ;
#177 = CALENDAR_DATE ( 2023, 31, 3 ) ;
#178 = CARTESIAN_POINT ( 'NONE',  ( 6.982962677686260794E-16, -2.435834570415088769E-17, 0.1999999999999998168 ) ) ;
#179 = APPLICATION_PROTOCOL_DEFINITION ( 'international standard', 'config_control_design', 1994, #72 ) ;
#180 = EDGE_CURVE ( 'NONE', #256, #142, #149, .T. ) ;
#181 = EDGE_CURVE ( 'NONE', #361, #255, #85, .T. ) ;
#182 = AXIS2_PLACEMENT_3D ( 'NONE', #294, #242, #319 ) ;
#183 = CONICAL_SURFACE ( 'NONE', #316, 7.000000000000000000, 0.7853981633974479459 ) ;
#184 = ORIENTED_EDGE ( 'NONE', *, *, #180, .F. ) ;
#185 = ORIENTED_EDGE ( 'NONE', *, *, #79, .F. ) ;
#186 = FACE_OUTER_BOUND ( 'NONE', #7, .T. ) ;
#187 = ORIENTED_EDGE ( 'NONE', *, *, #264, .T. ) ;
#188 = PLANE ( 'NONE',  #303 ) ;
#189 = AXIS2_PLACEMENT_3D ( 'NONE', #53, #163, #130 ) ;
#190 = ORIENTED_EDGE ( 'NONE', *, *, #152, .F. ) ;
#191 = DIRECTION ( 'NONE',  ( 3.491481338843133355E-15, -1.224646799147353207E-16, 1.000000000000000000 ) ) ;
#192 = ORIENTED_EDGE ( 'NONE', *, *, #208, .F. ) ;
#193 = CARTESIAN_POINT ( 'NONE',  ( 2.897929511239800811E-13, -1.016456843292303150E-14, 83.00000000000000000 ) ) ;
#194 = PERSON_AND_ORGANIZATION_ROLE ( 'design_owner' ) ;
#195 = LINE ( 'NONE', #87, #56 ) ;
#196 = EDGE_CURVE ( 'NONE', #136, #82, #344, .T. ) ;
#197 = DIRECTION ( 'NONE',  ( 4.275831445896958607E-31, 1.000000000000000000, 1.224646799147353207E-16 ) ) ;
#198 = APPLICATION_PROTOCOL_DEFINITION ( 'international standard', 'config_control_design', 1994, #280 ) ;
#199 = PERSON_AND_ORGANIZATION ( #362, #236 ) ;
#200 = DIRECTION ( 'NONE',  ( 0.000000000000000000, 1.000000000000000000, 0.000000000000000000 ) ) ;
#201 = PLANE ( 'NONE',  #182 ) ;
#202 = APPROVAL ( #269, 'UNSPECIFIED' ) ;
#203 = CC_DESIGN_APPROVAL ( #202, ( #86 ) ) ;
#204 = ADVANCED_FACE ( 'NONE', ( #133 ), #347, .T. ) ;
#205 = CARTESIAN_POINT ( 'NONE',  ( 2.880472104545584703E-13, 6.999999999999988454, 82.50000000000000000 ) ) ;
#206 = EDGE_CURVE ( 'NONE', #287, #80, #137, .T. ) ;
#207 = DIRECTION ( 'NONE',  ( 3.491481338843133355E-15, -1.224646799147353207E-16, 1.000000000000000000 ) ) ;
#208 = EDGE_CURVE ( 'NONE', #162, #28, #285, .T. ) ;
#209 = PERSON_AND_ORGANIZATION ( #362, #236 ) ;
#210 = SECURITY_CLASSIFICATION ( '', '', #127 ) ;
#211 = ADVANCED_BREP_SHAPE_REPRESENTATION ( '367643', ( #217, #97, #21 ), #43 ) ;
#212 = ADVANCED_FACE ( 'NONE', ( #186 ), #313, .T. ) ;
#213 = DIRECTION ( 'NONE',  ( 0.000000000000000000, 0.000000000000000000, 1.000000000000000000 ) ) ;
#214 = CC_DESIGN_PERSON_AND_ORGANIZATION_ASSIGNMENT ( #90, #272, ( #24 ) ) ;
#215 = VERTEX_POINT ( 'NONE', #246 ) ;
#216 = DIRECTION ( 'NONE',  ( 1.000000000000000000, 0.000000000000000000, 0.000000000000000000 ) ) ;
#217 = MANIFOLD_SOLID_BREP ( 'Corps-Déplacer/Copier1[1]', #330 ) ;
#218 = CIRCLE ( 'NONE', #113, 6.999999999999999112 ) ;
#219 = ORIENTED_EDGE ( 'NONE', *, *, #233, .F. ) ;
#220 = ADVANCED_FACE ( 'NONE', ( #151 ), #188, .T. ) ;
#221 = ORIENTED_EDGE ( 'NONE', *, *, #274, .T. ) ;
#222 = DIRECTION ( 'NONE',  ( 0.000000000000000000, 1.000000000000000000, 0.000000000000000000 ) ) ;
#223 = EDGE_LOOP ( 'NONE', ( #55, #84, #185, #184 ) ) ;
#224 = CARTESIAN_POINT ( 'NONE',  ( 9.426999614876461321E-14, -3.306546357697854128E-15, 27.00000000000000355 ) ) ;
#225 = AXIS2_PLACEMENT_3D ( 'NONE', #336, #261, #222 ) ;
#226 = ORIENTED_EDGE ( 'NONE', *, *, #181, .F. ) ;
#227 = EDGE_CURVE ( 'NONE', #142, #162, #195, .T. ) ;
#228 = FACE_OUTER_BOUND ( 'NONE', #31, .T. ) ;
#229 = COORDINATED_UNIVERSAL_TIME_OFFSET ( 1, 0, .AHEAD. ) ;
#230 = DIRECTION ( 'NONE',  ( -2.468850131082269682E-15, 0.7071067811865464625, -0.7071067811865486830 ) ) ;
#231 = DIRECTION ( 'NONE',  ( -3.491481338843133355E-15, 1.224646799147353207E-16, -1.000000000000000000 ) ) ;
#232 = FACE_OUTER_BOUND ( 'NONE', #311, .T. ) ;
#233 = EDGE_CURVE ( 'NONE', #28, #162, #132, .T. ) ;
#234 = PRODUCT_DEFINITION_SHAPE ( 'NONE', 'NONE',  #24 ) ;
#235 = VECTOR ( 'NONE', #68, 999.9999999999998863 ) ;
#236 = ORGANIZATION ( 'UNSPECIFIED', 'UNSPECIFIED', '' ) ;
#237 = COORDINATED_UNIVERSAL_TIME_OFFSET ( 1, 0, .AHEAD. ) ;
#238 = LINE ( 'NONE', #71, #235 ) ;
#239 = PERSON_AND_ORGANIZATION ( #362, #236 ) ;
#240 = FACE_OUTER_BOUND ( 'NONE', #314, .T. ) ;
#241 = EDGE_CURVE ( 'NONE', #82, #28, #322, .T. ) ;
#242 = DIRECTION ( 'NONE',  ( -3.491481338843133355E-15, 1.224646799147353207E-16, -1.000000000000000000 ) ) ;
#243 = CC_DESIGN_SECURITY_CLASSIFICATION ( #210, ( #86 ) ) ;
#244 = APPROVAL ( #300, 'UNSPECIFIED' ) ;
#245 = DIRECTION ( 'NONE',  ( 0.000000000000000000, 1.000000000000000000, 0.000000000000000000 ) ) ;
#246 = CARTESIAN_POINT ( 'NONE',  ( 9.426999614876461321E-14, 6.999999999999995559, 27.00000000000000355 ) ) ;
#247 = VECTOR ( 'NONE', #307, 1000.000000000000000 ) ;
#248 = DIRECTION ( 'NONE',  ( -2.382254525458721019E-15, -0.7071067811865462405, -0.7071067811865489050 ) ) ;
#249 = DIRECTION ( 'NONE',  ( 3.491481338843133355E-15, -1.217917285207545432E-16, 1.000000000000000000 ) ) ;
#250 = ORIENTED_EDGE ( 'NONE', *, *, #264, .F. ) ;
#251 = ORIENTED_EDGE ( 'NONE', *, *, #62, .F. ) ;
#252 = ADVANCED_FACE ( 'NONE', ( #63 ), #275, .T. ) ;
#253 = VECTOR ( 'NONE', #248, 1000.000000000000000 ) ;
#254 = CC_DESIGN_APPROVAL ( #291, ( #24 ) ) ;
#255 = VERTEX_POINT ( 'NONE', #108 ) ;
#256 = VERTEX_POINT ( 'NONE', #289 ) ;
#257 = CARTESIAN_POINT ( 'NONE',  ( 2.880472104545584703E-13, -1.010333609296566392E-14, 82.50000000000000000 ) ) ;
#258 = EDGE_CURVE ( 'NONE', #82, #142, #323, .T. ) ;
#259 = ORIENTED_EDGE ( 'NONE', *, *, #206, .T. ) ;
#260 = CALENDAR_DATE ( 2023, 31, 3 ) ;
#261 = DIRECTION ( 'NONE',  ( -3.491481338843133355E-15, 1.224646799147353207E-16, -1.000000000000000000 ) ) ;
#262 = UNCERTAINTY_MEASURE_WITH_UNIT (LENGTH_MEASURE( 1.000000000000000082E-05 ), #174, 'distance_accuracy_value', 'NONE');
#263 = DIRECTION ( 'NONE',  ( -4.264559162571736407E-31, -1.000000000000000000, -1.200366690966094160E-16 ) ) ;
#264 = EDGE_CURVE ( 'NONE', #80, #361, #315, .T. ) ;
#265 = APPROVAL_PERSON_ORGANIZATION ( #325, #291, #67 ) ;
#266 = DIRECTION ( 'NONE',  ( -3.491481338843133355E-15, 1.224646799147353207E-16, -1.000000000000000000 ) ) ;
#267 = EDGE_CURVE ( 'NONE', #23, #215, #218, .T. ) ;
#268 = DIRECTION ( 'NONE',  ( -3.491481338843133355E-15, 1.224646799147353207E-16, -1.000000000000000000 ) ) ;
#269 = APPROVAL_STATUS ( 'not_yet_approved' ) ;
#270 = DIRECTION ( 'NONE',  ( -4.275831445896958607E-31, -1.000000000000000000, -1.224646799147353207E-16 ) ) ;
#271 = CIRCLE ( 'NONE', #332, 6.999999999999999112 ) ;
#272 = PERSON_AND_ORGANIZATION_ROLE ( 'creator' ) ;
#273 = DIRECTION ( 'NONE',  ( -3.491481338843133355E-15, 1.224646799147353207E-16, -1.000000000000000000 ) ) ;
#274 = EDGE_CURVE ( 'NONE', #23, #255, #299, .T. ) ;
#275 = CONICAL_SURFACE ( 'NONE', #101, 6.999999999999999112, 0.7853981633974466137 ) ;
#276 = CARTESIAN_POINT ( 'NONE',  ( 2.993082012127870849E-30, 6.999999999999999112, 8.572527594031472204E-16 ) ) ;
#277 = AXIS2_PLACEMENT_3D ( 'NONE', #357, #128, #245 ) ;
#278 = AXIS2_PLACEMENT_3D ( 'NONE', #12, #342, #119 ) ;
#279 = ORIENTED_EDGE ( 'NONE', *, *, #64, .T. ) ;
#280 = APPLICATION_CONTEXT ( 'configuration controlled 3d designs of mechanical parts and assemblies' ) ;
#281 = EDGE_LOOP ( 'NONE', ( #259, #187, #25, #251 ) ) ;
#282 = DIRECTION ( 'NONE',  ( -4.264559162571736407E-31, -1.000000000000000000, -1.200366690966094160E-16 ) ) ;
#283 = DESIGN_CONTEXT ( 'detailed design', #280, 'design' ) ;
#284 = ORIENTED_EDGE ( 'NONE', *, *, #196, .F. ) ;
#285 = CIRCLE ( 'NONE', #120, 6.999999999999999112 ) ;
#286 = APPROVAL_PERSON_ORGANIZATION ( #143, #244, #150 ) ;
#287 = VERTEX_POINT ( 'NONE', #167 ) ;
#288 = ADVANCED_FACE ( 'NONE', ( #228 ), #183, .T. ) ;
#289 = CARTESIAN_POINT ( 'NONE',  ( 2.897929511239800811E-13, 6.499999999999990230, 83.00000000000000000 ) ) ;
#290 = ORIENTED_EDGE ( 'NONE', *, *, #79, .T. ) ;
#291 = APPROVAL ( #154, 'UNSPECIFIED' ) ;
#292 = DATE_AND_TIME ( #177, #16 ) ;
#293 = DIRECTION ( 'NONE',  ( 3.491481338843133355E-15, -1.217917285207545432E-16, 1.000000000000000000 ) ) ;
#294 = CARTESIAN_POINT ( 'NONE',  ( 2.897929511239800811E-13, 4.874219293651022994E-32, 83.00000000000000000 ) ) ;
#295 = CARTESIAN_POINT ( 'NONE',  ( -1.496541006063935600E-30, 5.249159239316501627E-32, -4.286263797015736595E-16 ) ) ;
#296 = DATE_AND_TIME ( #321, #146 ) ;
#297 = DIRECTION ( 'NONE',  ( 4.275831445896958607E-31, 1.000000000000000000, 1.224646799147353207E-16 ) ) ;
#298 = EDGE_CURVE ( 'NONE', #255, #361, #70, .T. ) ;
#299 = LINE ( 'NONE', #30, #340 ) ;
#300 = APPROVAL_STATUS ( 'not_yet_approved' ) ;
#301 = DATE_AND_TIME ( #343, #106 ) ;
#302 = DIRECTION ( 'NONE',  ( -4.252335473556635820E-31, -1.000000000000000000, -1.217917285207545432E-16 ) ) ;
#303 = AXIS2_PLACEMENT_3D ( 'NONE', #27, #191, #270 ) ;
#304 = ADVANCED_FACE ( 'NONE', ( #9 ), #114, .T. ) ;
#305 = CARTESIAN_POINT ( 'NONE',  ( 2.880472104545584703E-13, -1.010333609296566392E-14, 82.50000000000000000 ) ) ;
#306 = DIRECTION ( 'NONE',  ( 3.491481338843133355E-15, -1.217917285207545432E-16, 1.000000000000000000 ) ) ;
#307 = DIRECTION ( 'NONE',  ( -3.491481338843133355E-15, 1.224646799147353207E-16, -1.000000000000000000 ) ) ;
#308 = AXIS2_PLACEMENT_3D ( 'NONE', #168, #293, #263 ) ;
#309 = PERSON_AND_ORGANIZATION_ROLE ( 'creator' ) ;
#310 = AXIS2_PLACEMENT_3D ( 'NONE', #3, #61, #172 ) ;
#311 = EDGE_LOOP ( 'NONE', ( #337, #77 ) ) ;
#312 = ORIENTED_EDGE ( 'NONE', *, *, #181, .T. ) ;
#313 = CYLINDRICAL_SURFACE ( 'NONE', #189, 6.999999999999999112 ) ;
#314 = EDGE_LOOP ( 'NONE', ( #331, #161 ) ) ;
#315 = LINE ( 'NONE', #93, #159 ) ;
#316 = AXIS2_PLACEMENT_3D ( 'NONE', #141, #339, #32 ) ;
#317 = EDGE_LOOP ( 'NONE', ( #284, #107, #60, #49 ) ) ;
#318 = DIRECTION ( 'NONE',  ( 0.000000000000000000, 1.000000000000000000, 0.000000000000000000 ) ) ;
#319 = DIRECTION ( 'NONE',  ( 4.275831445896958607E-31, 1.000000000000000000, 1.224646799147353207E-16 ) ) ;
#320 = DIRECTION ( 'NONE',  ( -3.491481338843133355E-15, 1.224646799147353207E-16, -1.000000000000000000 ) ) ;
#321 = CALENDAR_DATE ( 2023, 31, 3 ) ;
#322 = LINE ( 'NONE', #148, #47 ) ;
#323 = CIRCLE ( 'NONE', #310, 6.999999999999999112 ) ;
#324 = CARTESIAN_POINT ( 'NONE',  ( 4.748414620826663256E-14, 7.000000000000000888, 0.2000000000000006495 ) ) ;
#325 = PERSON_AND_ORGANIZATION ( #362, #236 ) ;
#326 = CARTESIAN_POINT ( 'NONE',  ( 2.897929511239800811E-13, -1.016456843292303150E-14, 83.00000000000000000 ) ) ;
#327 = PLANE ( 'NONE',  #1 ) ;
#328 = FACE_OUTER_BOUND ( 'NONE', #88, .T. ) ;
#329 = CARTESIAN_POINT ( 'NONE',  ( 9.426999614876461321E-14, -3.306546357697854128E-15, 27.00000000000000355 ) ) ;
#330 = CLOSED_SHELL ( 'NONE', ( #19, #304, #156, #158, #252, #45 ) ) ;
#331 = ORIENTED_EDGE ( 'NONE', *, *, #208, .T. ) ;
#332 = AXIS2_PLACEMENT_3D ( 'NONE', #305, #173, #121 ) ;
#333 = ORIENTED_EDGE ( 'NONE', *, *, #258, .T. ) ;
#334 = DIRECTION ( 'NONE',  ( 3.491481338843133355E-15, -1.217917285207545432E-16, 1.000000000000000000 ) ) ;
#335 = ORIENTED_EDGE ( 'NONE', *, *, #274, .F. ) ;
#336 = CARTESIAN_POINT ( 'NONE',  ( 9.426999614876461321E-14, -3.306546357697854128E-15, 27.00000000000000355 ) ) ;
#337 = ORIENTED_EDGE ( 'NONE', *, *, #206, .F. ) ;
#338 = AXIS2_PLACEMENT_3D ( 'NONE', #29, #50, #297 ) ;
#339 = DIRECTION ( 'NONE',  ( 3.491481338843133355E-15, -1.217917285207545432E-16, 1.000000000000000000 ) ) ;
#340 = VECTOR ( 'NONE', #268, 1000.000000000000000 ) ;
#341 = ORIENTED_EDGE ( 'NONE', *, *, #227, .T. ) ;
#342 = DIRECTION ( 'NONE',  ( -3.491481338843133355E-15, 1.224646799147353207E-16, -1.000000000000000000 ) ) ;
#343 = CALENDAR_DATE ( 2023, 31, 3 ) ;
#344 = LINE ( 'NONE', #11, #253 ) ;
#345 = EDGE_CURVE ( 'NONE', #136, #256, #125, .T. ) ;
#346 = PLANE ( 'NONE',  #171 ) ;
#347 = CONICAL_SURFACE ( 'NONE', #26, 7.000000000000000000, 0.7853981633974479459 ) ;
#348 = ADVANCED_FACE ( 'NONE', ( #232 ), #346, .T. ) ;
#349 = DATE_AND_TIME ( #153, #157 ) ;
#350 = DIRECTION ( 'NONE',  ( -3.491481338843133355E-15, 1.224646799147353207E-16, -1.000000000000000000 ) ) ;
#351 = FACE_OUTER_BOUND ( 'NONE', #138, .T. ) ;
#352 = PERSON_AND_ORGANIZATION ( #362, #236 ) ;
#353 = CARTESIAN_POINT ( 'NONE',  ( 1.920158560610646373E-13, -7.000000000000009770, 82.50000000000000000 ) ) ;
#354 = CLOSED_SHELL ( 'NONE', ( #204, #74, #212, #220, #288, #348 ) ) ;
#355 = AXIS2_PLACEMENT_3D ( 'NONE', #37, #144, #117 ) ;
#356 = CARTESIAN_POINT ( 'NONE',  ( 2.897467173786937064E-13, -6.500000000000010658, 83.00000000000000000 ) ) ;
#357 = CARTESIAN_POINT ( 'NONE',  ( 2.880472104545584703E-13, -1.010333609296566392E-14, 82.50000000000000000 ) ) ;
#358 = AXIS2_PLACEMENT_3D ( 'NONE', #326, #266, #200 ) ;
#359 = CARTESIAN_POINT ( 'NONE',  ( 9.426999614876461321E-14, -3.306546357697854128E-15, 27.00000000000000355 ) ) ;
#360 = PRODUCT_RELATED_PRODUCT_CATEGORY ( 'detail', '', ( #118 ) ) ;
#361 = VERTEX_POINT ( 'NONE', #324 ) ;
#362 = PERSON ( 'UNSPECIFIED', 'UNSPECIFIED', 'UNSPECIFIED', ('UNSPECIFIED'), ('UNSPECIFIED'), ('UNSPECIFIED') ) ;
#363 = EDGE_LOOP ( 'NONE', ( #165, #52 ) ) ;
ENDSEC;
END-ISO-10303-21;
