ISO-10303-21;
HEADER;
FILE_DESCRIPTION (( 'STEP AP203' ),
    '1' );
FILE_NAME ('367641.step',
    '2023-04-03T05:26:11',
    ( '' ),
    ( '' ),
    'SwSTEP 2.0',
    'SolidWorks 2022',
    '' );
FILE_SCHEMA (( 'CONFIG_CONTROL_DESIGN' ));
ENDSEC;

DATA;
#1 = AXIS2_PLACEMENT_3D ( 'NONE', #225, #344, #343 ) ;
#2 = CIRCLE ( 'NONE', #23, 6.999999999999999112 ) ;
#3 = ORIENTED_EDGE ( 'NONE', *, *, #58, .T. ) ;
#4 = CYLINDRICAL_SURFACE ( 'NONE', #69, 6.999999999999999112 ) ;
#5 = DIRECTION ( 'NONE',  ( 0.000000000000000000, 1.000000000000000000, 0.000000000000000000 ) ) ;
#6 = ORIENTED_EDGE ( 'NONE', *, *, #46, .T. ) ;
#7 = LINE ( 'NONE', #244, #358 ) ;
#8 = EDGE_CURVE ( 'NONE', #187, #285, #189, .T. ) ;
#9 = CYLINDRICAL_SURFACE ( 'NONE', #151, 6.999999999999999112 ) ;
#10 = EDGE_LOOP ( 'NONE', ( #61, #210 ) ) ;
#11 = DIRECTION ( 'NONE',  ( -3.491481338843133355E-15, 1.224646799147353207E-16, -1.000000000000000000 ) ) ;
#12 = EDGE_CURVE ( 'NONE', #134, #360, #127, .T. ) ;
#13 = DIRECTION ( 'NONE',  ( 3.491481338843133355E-15, -1.217917285207545432E-16, 1.000000000000000000 ) ) ;
#14 = DIRECTION ( 'NONE',  ( -3.491481338843133355E-15, 1.224646799147353207E-16, -1.000000000000000000 ) ) ;
#15 = SHAPE_DEFINITION_REPRESENTATION ( #336, #132 ) ;
#16 = CARTESIAN_POINT ( 'NONE',  ( 9.426999614876458797E-14, 5.249159239316496154E-32, 26.99999999999999645 ) ) ;
#17 =( NAMED_UNIT ( * ) SI_UNIT ( $, .STERADIAN. ) SOLID_ANGLE_UNIT ( ) );
#18 = DATE_AND_TIME ( #331, #44 ) ;
#19 = ORIENTED_EDGE ( 'NONE', *, *, #309, .T. ) ;
#20 = COORDINATED_UNIVERSAL_TIME_OFFSET ( 1, 0, .AHEAD. ) ;
#21 = DIRECTION ( 'NONE',  ( 1.000000000000000000, 0.000000000000000000, 0.000000000000000000 ) ) ;
#22 = VERTEX_POINT ( 'NONE', #118 ) ;
#23 = AXIS2_PLACEMENT_3D ( 'NONE', #82, #199, #5 ) ;
#24 = CARTESIAN_POINT ( 'NONE',  ( 2.897467173786937064E-13, -6.500000000000010658, 83.00000000000000000 ) ) ;
#25 = ORIENTED_EDGE ( 'NONE', *, *, #192, .T. ) ;
#26 = ORIENTED_EDGE ( 'NONE', *, *, #348, .T. ) ;
#27 = ORIENTED_EDGE ( 'NONE', *, *, #348, .F. ) ;
#28 = CARTESIAN_POINT ( 'NONE',  ( 8.572527594031441635E-16, -6.999999999999999112, -8.572527594031500800E-16 ) ) ;
#29 = AXIS2_PLACEMENT_3D ( 'NONE', #258, #149, #260 ) ;
#30 = VECTOR ( 'NONE', #124, 1000.000000000000114 ) ;
#31 = VERTEX_POINT ( 'NONE', #123 ) ;
#32 = DIRECTION ( 'NONE',  ( 0.000000000000000000, 1.000000000000000000, 0.000000000000000000 ) ) ;
#33 = ORIENTED_EDGE ( 'NONE', *, *, #219, .F. ) ;
#34 = DIRECTION ( 'NONE',  ( -3.491481338843133355E-15, 1.224646799147353207E-16, -1.000000000000000000 ) ) ;
#35 = CARTESIAN_POINT ( 'NONE',  ( 0.000000000000000000, 0.000000000000000000, 0.000000000000000000 ) ) ;
#36 = ORIENTED_EDGE ( 'NONE', *, *, #257, .F. ) ;
#37 = CC_DESIGN_APPROVAL ( #330, ( #99 ) ) ;
#38 = PLANE ( 'NONE',  #197 ) ;
#39 = PERSON_AND_ORGANIZATION ( #346, #203 ) ;
#40 = DIRECTION ( 'NONE',  ( -4.252335473556635820E-31, -1.000000000000000000, -1.217917285207545432E-16 ) ) ;
#41 = PERSON_AND_ORGANIZATION_ROLE ( 'classification_officer' ) ;
#42 = ORIENTED_EDGE ( 'NONE', *, *, #325, .T. ) ;
#43 = VECTOR ( 'NONE', #166, 1000.000000000000000 ) ;
#44 = LOCAL_TIME ( 7, 26, 11.00000000000000000, #102 ) ;
#45 = FACE_OUTER_BOUND ( 'NONE', #175, .T. ) ;
#46 = EDGE_CURVE ( 'NONE', #211, #362, #171, .T. ) ;
#47 = DIRECTION ( 'NONE',  ( -3.491481338843133355E-15, 1.224646799147353207E-16, -1.000000000000000000 ) ) ;
#48 = PLANE ( 'NONE',  #283 ) ;
#49 = DATE_AND_TIME ( #300, #262 ) ;
#50 = CIRCLE ( 'NONE', #245, 6.999999999999999112 ) ;
#51 = APPROVAL_PERSON_ORGANIZATION ( #73, #330, #324 ) ;
#52 = APPROVAL_DATE_TIME ( #18, #330 ) ;
#53 = APPLICATION_PROTOCOL_DEFINITION ( 'international standard', 'config_control_design', 1994, #165 ) ;
#54 = ORIENTED_EDGE ( 'NONE', *, *, #295, .F. ) ;
#55 = APPLICATION_PROTOCOL_DEFINITION ( 'international standard', 'config_control_design', 1994, #207 ) ;
#56 = CARTESIAN_POINT ( 'NONE',  ( 2.880472104545584703E-13, -1.010333609296566392E-14, 82.50000000000000000 ) ) ;
#57 = CARTESIAN_POINT ( 'NONE',  ( 2.897929511239800811E-13, 4.874219293651022994E-32, 83.00000000000000000 ) ) ;
#58 = EDGE_CURVE ( 'NONE', #360, #134, #227, .T. ) ;
#59 = FACE_OUTER_BOUND ( 'NONE', #284, .T. ) ;
#60 = DIRECTION ( 'NONE',  ( -3.491481338843133355E-15, 1.224646799147353207E-16, -1.000000000000000000 ) ) ;
#61 = ORIENTED_EDGE ( 'NONE', *, *, #8, .F. ) ;
#62 = CARTESIAN_POINT ( 'NONE',  ( 0.000000000000000000, 0.000000000000000000, 0.000000000000000000 ) ) ;
#63 = CONICAL_SURFACE ( 'NONE', #272, 6.999999999999999112, 0.7853981633974466137 ) ;
#64 = ORIENTED_EDGE ( 'NONE', *, *, #97, .T. ) ;
#65 = CC_DESIGN_APPROVAL ( #141, ( #215 ) ) ;
#66 = CARTESIAN_POINT ( 'NONE',  ( 6.982962677686225295E-16, -2.435834570415076443E-17, 0.1999999999999988176 ) ) ;
#67 = CARTESIAN_POINT ( 'NONE',  ( 6.982962677686225295E-16, -2.435834570415076443E-17, 0.1999999999999988176 ) ) ;
#68 = DIRECTION ( 'NONE',  ( 3.491481338843133355E-15, -1.217917285207545432E-16, 1.000000000000000000 ) ) ;
#69 = AXIS2_PLACEMENT_3D ( 'NONE', #201, #223, #115 ) ;
#70 = CARTESIAN_POINT ( 'NONE',  ( -2.796951330699353179E-30, 9.756475950897339731E-32, -8.010786996289931254E-16 ) ) ;
#71 = FACE_OUTER_BOUND ( 'NONE', #160, .T. ) ;
#72 = PERSON_AND_ORGANIZATION ( #346, #203 ) ;
#73 = PERSON_AND_ORGANIZATION ( #346, #203 ) ;
#74 = AXIS2_PLACEMENT_3D ( 'NONE', #70, #179, #154 ) ;
#75 = AXIS2_PLACEMENT_3D ( 'NONE', #56, #340, #289 ) ;
#76 = CC_DESIGN_PERSON_AND_ORGANIZATION_ASSIGNMENT ( #80, #306, ( #215 ) ) ;
#77 = PERSON_AND_ORGANIZATION ( #346, #203 ) ;
#78 = ORIENTED_EDGE ( 'NONE', *, *, #295, .T. ) ;
#79 = DIRECTION ( 'NONE',  ( -3.491481338843133355E-15, 1.224646799147353207E-16, -1.000000000000000000 ) ) ;
#80 = PERSON_AND_ORGANIZATION ( #346, #203 ) ;
#81 = LOCAL_TIME ( 7, 26, 11.00000000000000000, #263 ) ;
#82 = CARTESIAN_POINT ( 'NONE',  ( 2.880472104545584703E-13, -1.010333609296566392E-14, 82.50000000000000000 ) ) ;
#83 = PERSON_AND_ORGANIZATION_ROLE ( 'design_supplier' ) ;
#84 = FACE_OUTER_BOUND ( 'NONE', #10, .T. ) ;
#85 = PRODUCT ( '367641', '367641', '', ( #209 ) ) ;
#86 = VERTEX_POINT ( 'NONE', #232 ) ;
#87 = DIRECTION ( 'NONE',  ( -3.491481338843133355E-15, 1.224646799147353207E-16, -1.000000000000000000 ) ) ;
#88 = CC_DESIGN_APPROVAL ( #176, ( #242 ) ) ;
#89 = EDGE_LOOP ( 'NONE', ( #275, #334, #280, #294 ) ) ;
#90 = DIRECTION ( 'NONE',  ( 4.275831445896958607E-31, 1.000000000000000000, 1.224646799147353207E-16 ) ) ;
#91 = ORIENTED_EDGE ( 'NONE', *, *, #309, .F. ) ;
#92 = DIRECTION ( 'NONE',  ( -3.491481338843133355E-15, 1.224646799147353207E-16, -1.000000000000000000 ) ) ;
#93 = ADVANCED_FACE ( 'NONE', ( #224 ), #63, .T. ) ;
#94 = VECTOR ( 'NONE', #164, 1000.000000000000000 ) ;
#95 = DIRECTION ( 'NONE',  ( 3.491481338843133355E-15, -1.224646799147353207E-16, 1.000000000000000000 ) ) ;
#96 = CARTESIAN_POINT ( 'NONE',  ( 4.834139896766975967E-14, -7.000000000000000888, 0.1999999999999979849 ) ) ;
#97 = EDGE_CURVE ( 'NONE', #362, #318, #98, .T. ) ;
#98 = LINE ( 'NONE', #320, #213 ) ;
#99 = PRODUCT_DEFINITION ( 'UNKNOWN', '', #215, #259 ) ;
#100 = CARTESIAN_POINT ( 'NONE',  ( 9.426999614876458797E-14, 5.249159239316496154E-32, 26.99999999999999645 ) ) ;
#101 = CARTESIAN_POINT ( 'NONE',  ( 9.426999614876458797E-14, -3.306546357697853339E-15, 26.99999999999999645 ) ) ;
#102 = COORDINATED_UNIVERSAL_TIME_OFFSET ( 1, 0, .AHEAD. ) ;
#103 = EDGE_LOOP ( 'NONE', ( #25, #78 ) ) ;
#104 = CARTESIAN_POINT ( 'NONE',  ( 0.000000000000000000, 0.000000000000000000, 0.000000000000000000 ) ) ;
#105 = CIRCLE ( 'NONE', #150, 6.500000000000000888 ) ;
#106 = AXIS2_PLACEMENT_3D ( 'NONE', #270, #79, #235 ) ;
#107 = COORDINATED_UNIVERSAL_TIME_OFFSET ( 1, 0, .AHEAD. ) ;
#108 = EDGE_CURVE ( 'NONE', #318, #86, #138, .T. ) ;
#109 = PERSON_AND_ORGANIZATION ( #346, #203 ) ;
#110 = PLANE ( 'NONE',  #279 ) ;
#111 = AXIS2_PLACEMENT_3D ( 'NONE', #253, #113, #217 ) ;
#112 = LINE ( 'NONE', #313, #43 ) ;
#113 = DIRECTION ( 'NONE',  ( -3.491481338843133355E-15, 1.224646799147353207E-16, -1.000000000000000000 ) ) ;
#114 = ORIENTED_EDGE ( 'NONE', *, *, #239, .T. ) ;
#115 = DIRECTION ( 'NONE',  ( 4.275831445896958607E-31, 1.000000000000000000, 1.224646799147353207E-16 ) ) ;
#116 = VECTOR ( 'NONE', #291, 1000.000000000000000 ) ;
#117 = LINE ( 'NONE', #28, #116 ) ;
#118 = CARTESIAN_POINT ( 'NONE',  ( 9.426999614876458797E-14, 6.999999999999995559, 26.99999999999999645 ) ) ;
#119 = DIRECTION ( 'NONE',  ( 0.000000000000000000, 1.000000000000000000, 0.000000000000000000 ) ) ;
#120 = CIRCLE ( 'NONE', #326, 6.999999999999999112 ) ;
#121 = DIRECTION ( 'NONE',  ( 0.000000000000000000, 1.000000000000000000, 0.000000000000000000 ) ) ;
#122 = ADVANCED_FACE ( 'NONE', ( #347 ), #182, .T. ) ;
#123 = CARTESIAN_POINT ( 'NONE',  ( 4.834139896766973443E-14, -7.000000000000002665, 26.99999999999999645 ) ) ;
#124 = DIRECTION ( 'NONE',  ( 2.468850131082253511E-15, -0.7071067811865507924, 0.7071067811865441310 ) ) ;
#125 = DIRECTION ( 'NONE',  ( -2.382254525458721019E-15, -0.7071067811865462405, -0.7071067811865489050 ) ) ;
#126 = DIRECTION ( 'NONE',  ( -3.491481338843133355E-15, 1.224646799147353207E-16, -1.000000000000000000 ) ) ;
#127 = CIRCLE ( 'NONE', #332, 7.000000000000000000 ) ;
#128 = CC_DESIGN_SECURITY_CLASSIFICATION ( #242, ( #215 ) ) ;
#129 = ADVANCED_FACE ( 'NONE', ( #45 ), #153, .T. ) ;
#130 = PERSON_AND_ORGANIZATION_ROLE ( 'creator' ) ;
#131 = EDGE_LOOP ( 'NONE', ( #339, #198, #26, #273 ) ) ;
#132 = ADVANCED_BREP_SHAPE_REPRESENTATION ( '367641', ( #357, #355, #190 ), #351 ) ;
#133 =( NAMED_UNIT ( * ) PLANE_ANGLE_UNIT ( ) SI_UNIT ( $, .RADIAN. ) );
#134 = VERTEX_POINT ( 'NONE', #96 ) ;
#135 = EDGE_CURVE ( 'NONE', #31, #22, #50, .T. ) ;
#136 = ORIENTED_EDGE ( 'NONE', *, *, #135, .T. ) ;
#137 = CARTESIAN_POINT ( 'NONE',  ( 8.572527594031441635E-16, -6.999999999999999112, -8.572527594031500800E-16 ) ) ;
#138 = CIRCLE ( 'NONE', #246, 6.999999999999999112 ) ;
#139 = ORIENTED_EDGE ( 'NONE', *, *, #257, .T. ) ;
#140 = CARTESIAN_POINT ( 'NONE',  ( 2.880472104545584703E-13, 6.999999999999988454, 82.50000000000000000 ) ) ;
#141 = APPROVAL ( #303, 'UNSPECIFIED' ) ;
#142 = SECURITY_CLASSIFICATION_LEVEL ( 'unclassified' ) ;
#143 = CARTESIAN_POINT ( 'NONE',  ( 2.897929511239800811E-13, -1.016456843292303150E-14, 83.00000000000000000 ) ) ;
#144 = EDGE_LOOP ( 'NONE', ( #290, #114, #222, #27 ) ) ;
#145 = CARTESIAN_POINT ( 'NONE',  ( 9.426999614876458797E-14, -3.306546357697853339E-15, 26.99999999999999645 ) ) ;
#146 = CONICAL_SURFACE ( 'NONE', #302, 7.000000000000000000, 0.7853981633974528309 ) ;
#147 = ORIENTED_EDGE ( 'NONE', *, *, #46, .F. ) ;
#148 = CARTESIAN_POINT ( 'NONE',  ( 2.880472104545584703E-13, -1.010333609296566392E-14, 82.50000000000000000 ) ) ;
#149 = DIRECTION ( 'NONE',  ( -3.491481338843133355E-15, 1.224646799147353207E-16, -1.000000000000000000 ) ) ;
#150 = AXIS2_PLACEMENT_3D ( 'NONE', #143, #34, #32 ) ;
#151 = AXIS2_PLACEMENT_3D ( 'NONE', #35, #60, #214 ) ;
#152 = ORIENTED_EDGE ( 'NONE', *, *, #231, .F. ) ;
#153 = PLANE ( 'NONE',  #202 ) ;
#154 = DIRECTION ( 'NONE',  ( -4.252335473556635820E-31, -1.000000000000000000, -1.217917285207545432E-16 ) ) ;
#155 = EDGE_CURVE ( 'NONE', #285, #187, #278, .T. ) ;
#156 = ORIENTED_EDGE ( 'NONE', *, *, #353, .T. ) ;
#157 = CALENDAR_DATE ( 2023, 3, 4 ) ;
#158 = APPROVAL_DATE_TIME ( #238, #141 ) ;
#159 = CC_DESIGN_PERSON_AND_ORGANIZATION_ASSIGNMENT ( #77, #356, ( #85 ) ) ;
#160 = EDGE_LOOP ( 'NONE', ( #216, #178, #316, #54 ) ) ;
#161 = CARTESIAN_POINT ( 'NONE',  ( 1.920158560610646373E-13, -7.000000000000009770, 82.50000000000000000 ) ) ;
#162 = ADVANCED_FACE ( 'NONE', ( #323 ), #48, .F. ) ;
#163 = ORIENTED_EDGE ( 'NONE', *, *, #293, .T. ) ;
#164 = DIRECTION ( 'NONE',  ( -2.468850131082269682E-15, 0.7071067811865464625, -0.7071067811865486830 ) ) ;
#165 = APPLICATION_CONTEXT ( 'configuration controlled 3d designs of mechanical parts and assemblies' ) ;
#166 = DIRECTION ( 'NONE',  ( -3.491481338843133355E-15, 1.224646799147353207E-16, -1.000000000000000000 ) ) ;
#167 = EDGE_LOOP ( 'NONE', ( #212, #136, #19, #3 ) ) ;
#168 = CARTESIAN_POINT ( 'NONE',  ( 1.194154425295989171E-15, 6.799999999999998934, 2.710505431213346933E-17 ) ) ;
#169 = ORIENTED_EDGE ( 'NONE', *, *, #353, .F. ) ;
#170 = DIRECTION ( 'NONE',  ( 2.555445736705804146E-15, 0.7071067811865505703, 0.7071067811865444641 ) ) ;
#171 = CIRCLE ( 'NONE', #29, 6.500000000000000888 ) ;
#172 = VERTEX_POINT ( 'NONE', #299 ) ;
#173 = CARTESIAN_POINT ( 'NONE',  ( 6.982962677686225295E-16, -2.435834570415076443E-17, 0.1999999999999988176 ) ) ;
#174 = LINE ( 'NONE', #261, #30 ) ;
#175 = EDGE_LOOP ( 'NONE', ( #169, #264 ) ) ;
#176 = APPROVAL ( #359, 'UNSPECIFIED' ) ;
#177 = APPROVAL_PERSON_ORGANIZATION ( #268, #176, #185 ) ;
#178 = ORIENTED_EDGE ( 'NONE', *, *, #108, .T. ) ;
#179 = DIRECTION ( 'NONE',  ( 3.491481338843133355E-15, -1.217917285207545432E-16, 1.000000000000000000 ) ) ;
#180 = DIRECTION ( 'NONE',  ( -4.275831445896958607E-31, -1.000000000000000000, -1.224646799147353207E-16 ) ) ;
#181 = COORDINATED_UNIVERSAL_TIME_OFFSET ( 1, 0, .AHEAD. ) ;
#182 = CONICAL_SURFACE ( 'NONE', #1, 7.000000000000000000, 0.7853981633974528309 ) ;
#183 = AXIS2_PLACEMENT_3D ( 'NONE', #62, #308, #218 ) ;
#184 = APPROVAL_STATUS ( 'not_yet_approved' ) ;
#185 = APPROVAL_ROLE ( '' ) ;
#186 = DATE_TIME_ROLE ( 'creation_date' ) ;
#187 = VERTEX_POINT ( 'NONE', #269 ) ;
#188 = DATE_AND_TIME ( #157, #327 ) ;
#189 = CIRCLE ( 'NONE', #271, 6.799999999999998934 ) ;
#190 = AXIS2_PLACEMENT_3D ( 'NONE', #104, #276, #21 ) ;
#191 = FACE_OUTER_BOUND ( 'NONE', #89, .T. ) ;
#192 = EDGE_CURVE ( 'NONE', #204, #172, #120, .T. ) ;
#193 = LINE ( 'NONE', #140, #94 ) ;
#194 = ORIENTED_EDGE ( 'NONE', *, *, #192, .F. ) ;
#195 = CLOSED_SHELL ( 'NONE', ( #93, #251, #162, #206, #315, #301 ) ) ;
#196 = LINE ( 'NONE', #312, #241 ) ;
#197 = AXIS2_PLACEMENT_3D ( 'NONE', #57, #338, #90 ) ;
#198 = ORIENTED_EDGE ( 'NONE', *, *, #155, .T. ) ;
#199 = DIRECTION ( 'NONE',  ( -3.491481338843133355E-15, 1.224646799147353207E-16, -1.000000000000000000 ) ) ;
#200 = CC_DESIGN_DATE_AND_TIME_ASSIGNMENT ( #49, #186, ( #99 ) ) ;
#201 = CARTESIAN_POINT ( 'NONE',  ( 0.000000000000000000, 0.000000000000000000, 0.000000000000000000 ) ) ;
#202 = AXIS2_PLACEMENT_3D ( 'NONE', #100, #95, #205 ) ;
#203 = ORGANIZATION ( 'UNSPECIFIED', 'UNSPECIFIED', '' ) ;
#204 = VERTEX_POINT ( 'NONE', #234 ) ;
#205 = DIRECTION ( 'NONE',  ( -4.275831445896958607E-31, -1.000000000000000000, -1.224646799147353207E-16 ) ) ;
#206 = ADVANCED_FACE ( 'NONE', ( #71 ), #4, .T. ) ;
#207 = APPLICATION_CONTEXT ( 'configuration controlled 3d designs of mechanical parts and assemblies' ) ;
#208 = DIRECTION ( 'NONE',  ( 3.491481338843133355E-15, -1.224646799147353207E-16, 1.000000000000000000 ) ) ;
#209 = MECHANICAL_CONTEXT ( 'NONE', #207, 'mechanical' ) ;
#210 = ORIENTED_EDGE ( 'NONE', *, *, #155, .F. ) ;
#211 = VERTEX_POINT ( 'NONE', #221 ) ;
#212 = ORIENTED_EDGE ( 'NONE', *, *, #325, .F. ) ;
#213 = VECTOR ( 'NONE', #125, 1000.000000000000000 ) ;
#214 = DIRECTION ( 'NONE',  ( 4.275831445896958607E-31, 1.000000000000000000, 1.224646799147353207E-16 ) ) ;
#215 = PRODUCT_DEFINITION_FORMATION_WITH_SPECIFIED_SOURCE ( 'ANY', '', #85, .NOT_KNOWN. ) ;
#216 = ORIENTED_EDGE ( 'NONE', *, *, #293, .F. ) ;
#217 = DIRECTION ( 'NONE',  ( 4.275831445896958607E-31, 1.000000000000000000, 1.224646799147353207E-16 ) ) ;
#218 = DIRECTION ( 'NONE',  ( 4.275831445896958607E-31, 1.000000000000000000, 1.224646799147353207E-16 ) ) ;
#219 = EDGE_CURVE ( 'NONE', #362, #211, #105, .T. ) ;
#220 = ORIENTED_EDGE ( 'NONE', *, *, #12, .T. ) ;
#221 = CARTESIAN_POINT ( 'NONE',  ( 2.897929511239800811E-13, 6.499999999999990230, 83.00000000000000000 ) ) ;
#222 = ORIENTED_EDGE ( 'NONE', *, *, #12, .F. ) ;
#223 = DIRECTION ( 'NONE',  ( -3.491481338843133355E-15, 1.224646799147353207E-16, -1.000000000000000000 ) ) ;
#224 = FACE_OUTER_BOUND ( 'NONE', #337, .T. ) ;
#225 = CARTESIAN_POINT ( 'NONE',  ( 6.982962677686225295E-16, -2.435834570415076443E-17, 0.1999999999999988176 ) ) ;
#226 = DIRECTION ( 'NONE',  ( 3.491481338843133355E-15, -1.217917285207545432E-16, 1.000000000000000000 ) ) ;
#227 = CIRCLE ( 'NONE', #282, 7.000000000000000000 ) ;
#228 = CIRCLE ( 'NONE', #106, 6.999999999999999112 ) ;
#229 = CARTESIAN_POINT ( 'NONE',  ( -2.796951330699353179E-30, 9.756475950897339731E-32, -8.010786996289931254E-16 ) ) ;
#230 = EDGE_LOOP ( 'NONE', ( #147, #33 ) ) ;
#231 = EDGE_CURVE ( 'NONE', #86, #204, #112, .T. ) ;
#232 = CARTESIAN_POINT ( 'NONE',  ( 2.880472104545584703E-13, 6.999999999999988454, 82.50000000000000000 ) ) ;
#233 = APPROVAL_PERSON_ORGANIZATION ( #243, #141, #237 ) ;
#234 = CARTESIAN_POINT ( 'NONE',  ( 9.426999614876458797E-14, 6.999999999999995559, 26.99999999999999645 ) ) ;
#235 = DIRECTION ( 'NONE',  ( 0.000000000000000000, 1.000000000000000000, 0.000000000000000000 ) ) ;
#236 = DATE_TIME_ROLE ( 'classification_date' ) ;
#237 = APPROVAL_ROLE ( '' ) ;
#238 = DATE_AND_TIME ( #274, #248 ) ;
#239 = EDGE_CURVE ( 'NONE', #285, #360, #196, .T. ) ;
#240 = CC_DESIGN_DATE_AND_TIME_ASSIGNMENT ( #328, #236, ( #242 ) ) ;
#241 = VECTOR ( 'NONE', #170, 1000.000000000000000 ) ;
#242 = SECURITY_CLASSIFICATION ( '', '', #142 ) ;
#243 = PERSON_AND_ORGANIZATION ( #346, #203 ) ;
#244 = CARTESIAN_POINT ( 'NONE',  ( 2.993082012127870849E-30, 6.999999999999999112, 8.572527594031472204E-16 ) ) ;
#245 = AXIS2_PLACEMENT_3D ( 'NONE', #266, #14, #322 ) ;
#246 = AXIS2_PLACEMENT_3D ( 'NONE', #297, #47, #121 ) ;
#247 = DIRECTION ( 'NONE',  ( -3.491481338843133355E-15, 1.224646799147353207E-16, -1.000000000000000000 ) ) ;
#248 = LOCAL_TIME ( 7, 26, 11.00000000000000000, #107 ) ;
#249 = ORIENTED_EDGE ( 'NONE', *, *, #329, .F. ) ;
#250 = DIRECTION ( 'NONE',  ( -3.491481338843133355E-15, 1.224646799147353207E-16, -1.000000000000000000 ) ) ;
#251 = ADVANCED_FACE ( 'NONE', ( #314 ), #9, .T. ) ;
#252 = DIRECTION ( 'NONE',  ( 4.275831445896958607E-31, 1.000000000000000000, 1.224646799147353207E-16 ) ) ;
#253 = CARTESIAN_POINT ( 'NONE',  ( 0.000000000000000000, 0.000000000000000000, 0.000000000000000000 ) ) ;
#254 = UNCERTAINTY_MEASURE_WITH_UNIT (LENGTH_MEASURE( 1.000000000000000082E-05 ), #361, 'distance_accuracy_value', 'NONE');
#255 = CALENDAR_DATE ( 2023, 3, 4 ) ;
#256 = FACE_OUTER_BOUND ( 'NONE', #131, .T. ) ;
#257 = EDGE_CURVE ( 'NONE', #86, #318, #2, .T. ) ;
#258 = CARTESIAN_POINT ( 'NONE',  ( 2.897929511239800811E-13, -1.016456843292303150E-14, 83.00000000000000000 ) ) ;
#259 = DESIGN_CONTEXT ( 'detailed design', #165, 'design' ) ;
#260 = DIRECTION ( 'NONE',  ( 0.000000000000000000, 1.000000000000000000, 0.000000000000000000 ) ) ;
#261 = CARTESIAN_POINT ( 'NONE',  ( 6.982962677686195713E-16, -7.000000000000000000, 0.1999999999999979849 ) ) ;
#262 = LOCAL_TIME ( 7, 26, 11.00000000000000000, #181 ) ;
#263 = COORDINATED_UNIVERSAL_TIME_OFFSET ( 1, 0, .AHEAD. ) ;
#264 = ORIENTED_EDGE ( 'NONE', *, *, #135, .F. ) ;
#265 = ADVANCED_FACE ( 'NONE', ( #59 ), #307, .T. ) ;
#266 = CARTESIAN_POINT ( 'NONE',  ( 9.426999614876458797E-14, -3.306546357697853339E-15, 26.99999999999999645 ) ) ;
#267 = CC_DESIGN_PERSON_AND_ORGANIZATION_ASSIGNMENT ( #72, #130, ( #99 ) ) ;
#268 = PERSON_AND_ORGANIZATION ( #346, #203 ) ;
#269 = CARTESIAN_POINT ( 'NONE',  ( -5.688539452717864591E-30, -6.799999999999998934, -1.629262453570123862E-15 ) ) ;
#270 = CARTESIAN_POINT ( 'NONE',  ( 9.426999614876458797E-14, -3.306546357697853339E-15, 26.99999999999999645 ) ) ;
#271 = AXIS2_PLACEMENT_3D ( 'NONE', #229, #68, #40 ) ;
#272 = AXIS2_PLACEMENT_3D ( 'NONE', #148, #11, #119 ) ;
#273 = ORIENTED_EDGE ( 'NONE', *, *, #58, .F. ) ;
#274 = CALENDAR_DATE ( 2023, 3, 4 ) ;
#275 = ORIENTED_EDGE ( 'NONE', *, *, #97, .F. ) ;
#276 = DIRECTION ( 'NONE',  ( 0.000000000000000000, 0.000000000000000000, 1.000000000000000000 ) ) ;
#277 = APPROVAL_DATE_TIME ( #188, #176 ) ;
#278 = CIRCLE ( 'NONE', #74, 6.799999999999998934 ) ;
#279 = AXIS2_PLACEMENT_3D ( 'NONE', #342, #92, #252 ) ;
#280 = ORIENTED_EDGE ( 'NONE', *, *, #329, .T. ) ;
#281 = LINE ( 'NONE', #137, #321 ) ;
#282 = AXIS2_PLACEMENT_3D ( 'NONE', #173, #350, #349 ) ;
#283 = AXIS2_PLACEMENT_3D ( 'NONE', #16, #208, #180 ) ;
#284 = EDGE_LOOP ( 'NONE', ( #156, #42, #220, #91 ) ) ;
#285 = VERTEX_POINT ( 'NONE', #168 ) ;
#286 = ADVANCED_FACE ( 'NONE', ( #333 ), #363, .T. ) ;
#287 = FACE_OUTER_BOUND ( 'NONE', #230, .T. ) ;
#288 = PRODUCT_RELATED_PRODUCT_CATEGORY ( 'detail', '', ( #85 ) ) ;
#289 = DIRECTION ( 'NONE',  ( 0.000000000000000000, 1.000000000000000000, 0.000000000000000000 ) ) ;
#290 = ORIENTED_EDGE ( 'NONE', *, *, #8, .T. ) ;
#291 = DIRECTION ( 'NONE',  ( -3.491481338843133355E-15, 1.224646799147353207E-16, -1.000000000000000000 ) ) ;
#292 = CIRCLE ( 'NONE', #317, 6.999999999999999112 ) ;
#293 = EDGE_CURVE ( 'NONE', #318, #172, #117, .T. ) ;
#294 = ORIENTED_EDGE ( 'NONE', *, *, #108, .F. ) ;
#295 = EDGE_CURVE ( 'NONE', #172, #204, #292, .T. ) ;
#296 = CONICAL_SURFACE ( 'NONE', #75, 6.999999999999999112, 0.7853981633974466137 ) ;
#297 = CARTESIAN_POINT ( 'NONE',  ( 2.880472104545584703E-13, -1.010333609296566392E-14, 82.50000000000000000 ) ) ;
#298 = DIRECTION ( 'NONE',  ( -4.264559162571736407E-31, -1.000000000000000000, -1.200366690966094160E-16 ) ) ;
#299 = CARTESIAN_POINT ( 'NONE',  ( 1.920158560610646878E-13, -7.000000000000002665, 26.99999999999999645 ) ) ;
#300 = CALENDAR_DATE ( 2023, 3, 4 ) ;
#301 = ADVANCED_FACE ( 'NONE', ( #287 ), #38, .F. ) ;
#302 = AXIS2_PLACEMENT_3D ( 'NONE', #67, #226, #345 ) ;
#303 = APPROVAL_STATUS ( 'not_yet_approved' ) ;
#304 = EDGE_LOOP ( 'NONE', ( #139, #163, #194, #152 ) ) ;
#305 = ADVANCED_FACE ( 'NONE', ( #84 ), #110, .T. ) ;
#306 = PERSON_AND_ORGANIZATION_ROLE ( 'creator' ) ;
#307 = CYLINDRICAL_SURFACE ( 'NONE', #183, 6.999999999999999112 ) ;
#308 = DIRECTION ( 'NONE',  ( -3.491481338843133355E-15, 1.224646799147353207E-16, -1.000000000000000000 ) ) ;
#309 = EDGE_CURVE ( 'NONE', #22, #360, #7, .T. ) ;
#310 = CLOSED_SHELL ( 'NONE', ( #122, #265, #286, #129, #341, #305 ) ) ;
#311 = CC_DESIGN_PERSON_AND_ORGANIZATION_ASSIGNMENT ( #39, #41, ( #242 ) ) ;
#312 = CARTESIAN_POINT ( 'NONE',  ( 1.555549027171772511E-15, 7.000000000000000000, 0.1999999999999996503 ) ) ;
#313 = CARTESIAN_POINT ( 'NONE',  ( 2.993082012127870849E-30, 6.999999999999999112, 8.572527594031472204E-16 ) ) ;
#314 = FACE_OUTER_BOUND ( 'NONE', #304, .T. ) ;
#315 = ADVANCED_FACE ( 'NONE', ( #191 ), #296, .T. ) ;
#316 = ORIENTED_EDGE ( 'NONE', *, *, #231, .T. ) ;
#317 = AXIS2_PLACEMENT_3D ( 'NONE', #145, #250, #335 ) ;
#318 = VERTEX_POINT ( 'NONE', #161 ) ;
#319 = CC_DESIGN_PERSON_AND_ORGANIZATION_ASSIGNMENT ( #109, #83, ( #215 ) ) ;
#320 = CARTESIAN_POINT ( 'NONE',  ( 2.889044632139616415E-13, -7.000000000000009770, 82.50000000000000000 ) ) ;
#321 = VECTOR ( 'NONE', #247, 1000.000000000000000 ) ;
#322 = DIRECTION ( 'NONE',  ( 0.000000000000000000, 1.000000000000000000, 0.000000000000000000 ) ) ;
#323 = FACE_OUTER_BOUND ( 'NONE', #103, .T. ) ;
#324 = APPROVAL_ROLE ( '' ) ;
#325 = EDGE_CURVE ( 'NONE', #31, #134, #281, .T. ) ;
#326 = AXIS2_PLACEMENT_3D ( 'NONE', #101, #126, #352 ) ;
#327 = LOCAL_TIME ( 7, 26, 11.00000000000000000, #20 ) ;
#328 = DATE_AND_TIME ( #255, #81 ) ;
#329 = EDGE_CURVE ( 'NONE', #211, #86, #193, .T. ) ;
#330 = APPROVAL ( #184, 'UNSPECIFIED' ) ;
#331 = CALENDAR_DATE ( 2023, 3, 4 ) ;
#332 = AXIS2_PLACEMENT_3D ( 'NONE', #66, #13, #298 ) ;
#333 = FACE_OUTER_BOUND ( 'NONE', #167, .T. ) ;
#334 = ORIENTED_EDGE ( 'NONE', *, *, #219, .T. ) ;
#335 = DIRECTION ( 'NONE',  ( 0.000000000000000000, 1.000000000000000000, 0.000000000000000000 ) ) ;
#336 = PRODUCT_DEFINITION_SHAPE ( 'NONE', 'NONE',  #99 ) ;
#337 = EDGE_LOOP ( 'NONE', ( #6, #64, #36, #249 ) ) ;
#338 = DIRECTION ( 'NONE',  ( -3.491481338843133355E-15, 1.224646799147353207E-16, -1.000000000000000000 ) ) ;
#339 = ORIENTED_EDGE ( 'NONE', *, *, #239, .F. ) ;
#340 = DIRECTION ( 'NONE',  ( -3.491481338843133355E-15, 1.224646799147353207E-16, -1.000000000000000000 ) ) ;
#341 = ADVANCED_FACE ( 'NONE', ( #256 ), #146, .T. ) ;
#342 = CARTESIAN_POINT ( 'NONE',  ( -1.496541006063935600E-30, 5.249159239316501627E-32, -4.286263797015736595E-16 ) ) ;
#343 = DIRECTION ( 'NONE',  ( -4.264559162571736407E-31, -1.000000000000000000, -1.200366690966094160E-16 ) ) ;
#344 = DIRECTION ( 'NONE',  ( 3.491481338843133355E-15, -1.217917285207545432E-16, 1.000000000000000000 ) ) ;
#345 = DIRECTION ( 'NONE',  ( -4.264559162571736407E-31, -1.000000000000000000, -1.200366690966094160E-16 ) ) ;
#346 = PERSON ( 'UNSPECIFIED', 'UNSPECIFIED', 'UNSPECIFIED', ('UNSPECIFIED'), ('UNSPECIFIED'), ('UNSPECIFIED') ) ;
#347 = FACE_OUTER_BOUND ( 'NONE', #144, .T. ) ;
#348 = EDGE_CURVE ( 'NONE', #187, #134, #174, .T. ) ;
#349 = DIRECTION ( 'NONE',  ( -4.264559162571736407E-31, -1.000000000000000000, -1.200366690966094160E-16 ) ) ;
#350 = DIRECTION ( 'NONE',  ( 3.491481338843133355E-15, -1.217917285207545432E-16, 1.000000000000000000 ) ) ;
#351 =( GEOMETRIC_REPRESENTATION_CONTEXT ( 3 ) GLOBAL_UNCERTAINTY_ASSIGNED_CONTEXT ( ( #254 ) ) GLOBAL_UNIT_ASSIGNED_CONTEXT ( ( #361, #133, #17 ) ) REPRESENTATION_CONTEXT ( 'NONE', 'WORKASPACE' ) );
#352 = DIRECTION ( 'NONE',  ( 0.000000000000000000, 1.000000000000000000, 0.000000000000000000 ) ) ;
#353 = EDGE_CURVE ( 'NONE', #22, #31, #228, .T. ) ;
#354 = CARTESIAN_POINT ( 'NONE',  ( 4.748414620826661994E-14, 7.000000000000000888, 0.1999999999999996503 ) ) ;
#355 = MANIFOLD_SOLID_BREP ( 'Corps-Déplacer/Copier1[2]', #310 ) ;
#356 = PERSON_AND_ORGANIZATION_ROLE ( 'design_owner' ) ;
#357 = MANIFOLD_SOLID_BREP ( 'Corps-Déplacer/Copier1[1]', #195 ) ;
#358 = VECTOR ( 'NONE', #87, 1000.000000000000000 ) ;
#359 = APPROVAL_STATUS ( 'not_yet_approved' ) ;
#360 = VERTEX_POINT ( 'NONE', #354 ) ;
#361 =( LENGTH_UNIT ( ) NAMED_UNIT ( * ) SI_UNIT ( .MILLI., .METRE. ) );
#362 = VERTEX_POINT ( 'NONE', #24 ) ;
#363 = CYLINDRICAL_SURFACE ( 'NONE', #111, 6.999999999999999112 ) ;
ENDSEC;
END-ISO-10303-21;
