ISO-10303-21;
HEADER;
FILE_DESCRIPTION (( 'STEP AP203' ),
    '1' );
FILE_NAME ('367639.step',
    '2023-04-03T05:26:11',
    ( '' ),
    ( '' ),
    'SwSTEP 2.0',
    'SolidWorks 2022',
    '' );
FILE_SCHEMA (( 'CONFIG_CONTROL_DESIGN' ));
ENDSEC;

DATA;
#1 = CIRCLE ( 'NONE', #340, 10.00000000000000000 ) ;
#2 = ORIENTED_EDGE ( 'NONE', *, *, #288, .F. ) ;
#3 = CARTESIAN_POINT ( 'NONE',  ( 1.224646799147348918E-15, -10.00000000000000000, -1.224646799147357595E-15 ) ) ;
#4 = DIRECTION ( 'NONE',  ( 2.555445736705807301E-15, 0.7071067811865496822, 0.7071067811865453523 ) ) ;
#5 = CARTESIAN_POINT ( 'NONE',  ( 1.396592535537253342E-13, 9.999999999999994671, 40.00000000000000000 ) ) ;
#6 = EDGE_CURVE ( 'NONE', #69, #130, #58, .T. ) ;
#7 = CONICAL_SURFACE ( 'NONE', #334, 10.00000000000000000, 0.7853981633974482790 ) ;
#8 = SECURITY_CLASSIFICATION ( '', '', #129 ) ;
#9 = DIRECTION ( 'NONE',  ( 0.000000000000000000, 0.000000000000000000, 1.000000000000000000 ) ) ;
#10 = DIRECTION ( 'NONE',  ( -3.491481338843133355E-15, 1.224646799147353454E-16, -1.000000000000000000 ) ) ;
#11 = DIRECTION ( 'NONE',  ( 0.000000000000000000, 1.000000000000000000, 0.000000000000000000 ) ) ;
#12 = CIRCLE ( 'NONE', #55, 10.00000000000000000 ) ;
#13 = CC_DESIGN_SECURITY_CLASSIFICATION ( #8, ( #309 ) ) ;
#14 = FACE_OUTER_BOUND ( 'NONE', #264, .T. ) ;
#15 = DIRECTION ( 'NONE',  ( -3.491481338843133355E-15, 1.224646799147353454E-16, -1.000000000000000000 ) ) ;
#16 = CARTESIAN_POINT ( 'NONE',  ( 4.275831445896958957E-30, 10.00000000000000000, 1.224646799147353454E-15 ) ) ;
#17 = PERSON_AND_ORGANIZATION ( #311, #320 ) ;
#18 = EDGE_LOOP ( 'NONE', ( #136, #20, #270, #102 ) ) ;
#19 = APPROVAL_STATUS ( 'not_yet_approved' ) ;
#20 = ORIENTED_EDGE ( 'NONE', *, *, #350, .T. ) ;
#21 = PERSON_AND_ORGANIZATION_ROLE ( 'design_supplier' ) ;
#22 = ORIENTED_EDGE ( 'NONE', *, *, #354, .F. ) ;
#23 = CIRCLE ( 'NONE', #92, 10.00000000000000000 ) ;
#24 = DATE_TIME_ROLE ( 'classification_date' ) ;
#25 = ORIENTED_EDGE ( 'NONE', *, *, #155, .T. ) ;
#26 = ORIENTED_EDGE ( 'NONE', *, *, #288, .T. ) ;
#27 = CARTESIAN_POINT ( 'NONE',  ( 1.396592535537253342E-13, -4.898587196589413815E-15, 40.00000000000000000 ) ) ;
#28 = CARTESIAN_POINT ( 'NONE',  ( 3.596225779008426977E-13, 9.999999999999987566, 103.0000000000000000 ) ) ;
#29 = CYLINDRICAL_SURFACE ( 'NONE', #342, 10.00000000000000000 ) ;
#30 = CARTESIAN_POINT ( 'NONE',  ( 3.596225779008426977E-13, -1.261386203121773919E-14, 103.0000000000000000 ) ) ;
#31 = CARTESIAN_POINT ( 'NONE',  ( 1.922943066915983675E-15, 10.00000000000000000, 0.2000000000000010103 ) ) ;
#32 = CC_DESIGN_PERSON_AND_ORGANIZATION_ASSIGNMENT ( #144, #146, ( #259 ) ) ;
#33 = CLOSED_SHELL ( 'NONE', ( #302, #224, #166, #215, #96, #56 ) ) ;
#34 = CARTESIAN_POINT ( 'NONE',  ( 3.631140592396858689E-13, 6.748919021978343909E-32, 104.0000000000000000 ) ) ;
#35 = CARTESIAN_POINT ( 'NONE',  ( 7.140342170989431299E-14, -10.00000000000000711, 40.00000000000000000 ) ) ;
#36 = DIRECTION ( 'NONE',  ( 3.491481338843133355E-15, -1.217917285207545432E-16, 1.000000000000000000 ) ) ;
#37 = PLANE ( 'NONE',  #273 ) ;
#38 = CONICAL_SURFACE ( 'NONE', #233, 10.00000000000000000, 0.7853981633974514986 ) ;
#39 = CIRCLE ( 'NONE', #274, 10.00000000000000000 ) ;
#40 = PRODUCT_RELATED_PRODUCT_CATEGORY ( 'detail', '', ( #71 ) ) ;
#41 = DIRECTION ( 'NONE',  ( -4.237045877651918877E-31, -1.000000000000000000, -1.219727444046192488E-16 ) ) ;
#42 = EDGE_CURVE ( 'NONE', #52, #330, #125, .T. ) ;
#43 = DIRECTION ( 'NONE',  ( -3.491481338843133355E-15, 1.224646799147353454E-16, -1.000000000000000000 ) ) ;
#44 = DIRECTION ( 'NONE',  ( -3.491481338843133355E-15, 1.224646799147353454E-16, -1.000000000000000000 ) ) ;
#45 = COORDINATED_UNIVERSAL_TIME_OFFSET ( 1, 0, .AHEAD. ) ;
#46 = EDGE_LOOP ( 'NONE', ( #235, #300, #271, #2 ) ) ;
#47 = AXIS2_PLACEMENT_3D ( 'NONE', #294, #205, #193 ) ;
#48 = SHAPE_DEFINITION_REPRESENTATION ( #126, #287 ) ;
#49 = ORIENTED_EDGE ( 'NONE', *, *, #249, .T. ) ;
#50 = ORIENTED_EDGE ( 'NONE', *, *, #42, .T. ) ;
#51 = VECTOR ( 'NONE', #4, 1000.000000000000000 ) ;
#52 = VERTEX_POINT ( 'NONE', #5 ) ;
#53 = DIRECTION ( 'NONE',  ( -3.491481338843133355E-15, 1.224646799147353454E-16, -1.000000000000000000 ) ) ;
#54 = FACE_OUTER_BOUND ( 'NONE', #301, .T. ) ;
#55 = AXIS2_PLACEMENT_3D ( 'NONE', #321, #345, #11 ) ;
#56 = ADVANCED_FACE ( 'NONE', ( #282 ), #338, .F. ) ;
#57 = CARTESIAN_POINT ( 'NONE',  ( 3.608472246999900492E-13, -10.00000000000001243, 103.0000000000000000 ) ) ;
#58 = LINE ( 'NONE', #216, #226 ) ;
#59 = AXIS2_PLACEMENT_3D ( 'NONE', #349, #316, #93 ) ;
#60 = DIRECTION ( 'NONE',  ( 4.275831445896958607E-31, 1.000000000000000000, 1.224646799147353454E-16 ) ) ;
#61 = DIRECTION ( 'NONE',  ( 3.491481338843133355E-15, -1.217917285207545432E-16, 1.000000000000000000 ) ) ;
#62 = CYLINDRICAL_SURFACE ( 'NONE', #358, 10.00000000000000000 ) ;
#63 = VECTOR ( 'NONE', #178, 1000.000000000000000 ) ;
#64 = CIRCLE ( 'NONE', #297, 9.000000000000000000 ) ;
#65 = CARTESIAN_POINT ( 'NONE',  ( 6.982962677686259808E-16, -2.435834570415088461E-17, 0.1999999999999997891 ) ) ;
#66 = LINE ( 'NONE', #16, #156 ) ;
#67 = ORIENTED_EDGE ( 'NONE', *, *, #42, .F. ) ;
#68 = APPROVAL_DATE_TIME ( #192, #72 ) ;
#69 = VERTEX_POINT ( 'NONE', #336 ) ;
#70 = AXIS2_PLACEMENT_3D ( 'NONE', #238, #9, #114 ) ;
#71 = PRODUCT ( '367639', '367639', '', ( #246 ) ) ;
#72 = APPROVAL ( #19, 'UNSPECIFIED' ) ;
#73 = CALENDAR_DATE ( 2023, 3, 4 ) ;
#74 = ORIENTED_EDGE ( 'NONE', *, *, #128, .T. ) ;
#75 = APPROVAL_ROLE ( '' ) ;
#76 = EDGE_LOOP ( 'NONE', ( #159, #163, #26, #207 ) ) ;
#77 = COORDINATED_UNIVERSAL_TIME_OFFSET ( 1, 0, .AHEAD. ) ;
#78 = ORIENTED_EDGE ( 'NONE', *, *, #6, .T. ) ;
#79 = DIRECTION ( 'NONE',  ( -3.491481338843133355E-15, 1.224646799147353454E-16, -1.000000000000000000 ) ) ;
#80 =( NAMED_UNIT ( * ) PLANE_ANGLE_UNIT ( ) SI_UNIT ( $, .RADIAN. ) );
#81 = CARTESIAN_POINT ( 'NONE',  ( -4.167288764085501369E-30, 1.453656063335170829E-31, -1.193558939503394119E-15 ) ) ;
#82 = CARTESIAN_POINT ( 'NONE',  ( 3.596225779008426977E-13, -1.261386203121773919E-14, 103.0000000000000000 ) ) ;
#83 = LOCAL_TIME ( 7, 26, 11.00000000000000000, #118 ) ;
#84 = DIRECTION ( 'NONE',  ( 0.000000000000000000, 1.000000000000000000, 0.000000000000000000 ) ) ;
#85 = DIRECTION ( 'NONE',  ( 0.000000000000000000, 1.000000000000000000, 0.000000000000000000 ) ) ;
#86 = DIRECTION ( 'NONE',  ( 0.000000000000000000, 1.000000000000000000, 0.000000000000000000 ) ) ;
#87 = FACE_OUTER_BOUND ( 'NONE', #229, .T. ) ;
#88 = APPLICATION_CONTEXT ( 'configuration controlled 3d designs of mechanical parts and assemblies' ) ;
#89 = EDGE_CURVE ( 'NONE', #206, #237, #167, .T. ) ;
#90 = CC_DESIGN_APPROVAL ( #72, ( #309 ) ) ;
#91 = DIRECTION ( 'NONE',  ( 3.491481338843133355E-15, -1.224646799147353454E-16, 1.000000000000000000 ) ) ;
#92 = AXIS2_PLACEMENT_3D ( 'NONE', #312, #165, #245 ) ;
#93 = DIRECTION ( 'NONE',  ( -4.275831445896959482E-31, -1.000000000000000000, -1.224646799147353454E-16 ) ) ;
#94 = EDGE_CURVE ( 'NONE', #69, #138, #119, .T. ) ;
#95 = CARTESIAN_POINT ( 'NONE',  ( 0.000000000000000000, 0.000000000000000000, 0.000000000000000000 ) ) ;
#96 = ADVANCED_FACE ( 'NONE', ( #277 ), #7, .T. ) ;
#97 = CARTESIAN_POINT ( 'NONE',  ( 1.396592535537253342E-13, 7.498798913309283660E-32, 40.00000000000000000 ) ) ;
#98 = APPLICATION_CONTEXT ( 'configuration controlled 3d designs of mechanical parts and assemblies' ) ;
#99 = PERSON_AND_ORGANIZATION_ROLE ( 'design_owner' ) ;
#100 = CYLINDRICAL_SURFACE ( 'NONE', #47, 10.00000000000000000 ) ;
#101 = APPROVAL_STATUS ( 'not_yet_approved' ) ;
#102 = ORIENTED_EDGE ( 'NONE', *, *, #6, .F. ) ;
#103 = VERTEX_POINT ( 'NONE', #197 ) ;
#104 = AXIS2_PLACEMENT_3D ( 'NONE', #283, #243, #212 ) ;
#105 = PERSON_AND_ORGANIZATION ( #311, #320 ) ;
#106 = ORIENTED_EDGE ( 'NONE', *, *, #343, .T. ) ;
#107 = ADVANCED_FACE ( 'NONE', ( #115 ), #182, .T. ) ;
#108 = ORIENTED_EDGE ( 'NONE', *, *, #329, .T. ) ;
#109 = CARTESIAN_POINT ( 'NONE',  ( 1.396592535537253342E-13, -4.898587196589413815E-15, 40.00000000000000000 ) ) ;
#110 = CARTESIAN_POINT ( 'NONE',  ( 4.275831445896958957E-30, 10.00000000000000000, 1.224646799147353454E-15 ) ) ;
#111 = LINE ( 'NONE', #57, #181 ) ;
#112 = MANIFOLD_SOLID_BREP ( 'Corps-Déplacer/Copier1[1]', #33 ) ;
#113 = DIRECTION ( 'NONE',  ( -4.252335473556634944E-31, -1.000000000000000000, -1.217917285207545432E-16 ) ) ;
#114 = DIRECTION ( 'NONE',  ( 1.000000000000000000, 0.000000000000000000, 0.000000000000000000 ) ) ;
#115 = FACE_OUTER_BOUND ( 'NONE', #142, .T. ) ;
#116 = APPROVAL_ROLE ( '' ) ;
#117 = CARTESIAN_POINT ( 'NONE',  ( 7.140342170989433823E-14, -10.00000000000000000, 0.1999999999999985678 ) ) ;
#118 = COORDINATED_UNIVERSAL_TIME_OFFSET ( 1, 0, .AHEAD. ) ;
#119 = CIRCLE ( 'NONE', #347, 9.799999999999997158 ) ;
#120 = AXIS2_PLACEMENT_3D ( 'NONE', #82, #79, #310 ) ;
#121 = CARTESIAN_POINT ( 'NONE',  ( -2.137915722948479478E-30, 7.498798913309291323E-32, -6.123233995736767268E-16 ) ) ;
#122 = DIRECTION ( 'NONE',  ( -4.237045877651918877E-31, -1.000000000000000000, -1.219727444046192488E-16 ) ) ;
#123 = CARTESIAN_POINT ( 'NONE',  ( 3.625317330294542294E-13, -9.000000000000010658, 104.0000000000000000 ) ) ;
#124 = DIRECTION ( 'NONE',  ( 0.000000000000000000, 1.000000000000000000, 0.000000000000000000 ) ) ;
#125 = CIRCLE ( 'NONE', #186, 10.00000000000000000 ) ;
#126 = PRODUCT_DEFINITION_SHAPE ( 'NONE', 'NONE',  #259 ) ;
#127 = LOCAL_TIME ( 7, 26, 11.00000000000000000, #45 ) ;
#128 = EDGE_CURVE ( 'NONE', #330, #130, #252, .T. ) ;
#129 = SECURITY_CLASSIFICATION_LEVEL ( 'unclassified' ) ;
#130 = VERTEX_POINT ( 'NONE', #117 ) ;
#131 = VERTEX_POINT ( 'NONE', #221 ) ;
#132 = PERSON_AND_ORGANIZATION ( #311, #320 ) ;
#133 = ORIENTED_EDGE ( 'NONE', *, *, #128, .F. ) ;
#134 = ADVANCED_FACE ( 'NONE', ( #14 ), #37, .T. ) ;
#135 = ORIENTED_EDGE ( 'NONE', *, *, #257, .T. ) ;
#136 = ORIENTED_EDGE ( 'NONE', *, *, #94, .T. ) ;
#137 =( LENGTH_UNIT ( ) NAMED_UNIT ( * ) SI_UNIT ( .MILLI., .METRE. ) );
#138 = VERTEX_POINT ( 'NONE', #204 ) ;
#139 = DIRECTION ( 'NONE',  ( 0.000000000000000000, 1.000000000000000000, 0.000000000000000000 ) ) ;
#140 = CC_DESIGN_DATE_AND_TIME_ASSIGNMENT ( #177, #328, ( #259 ) ) ;
#141 = DIRECTION ( 'NONE',  ( -3.491481338843133355E-15, 1.224646799147353454E-16, -1.000000000000000000 ) ) ;
#142 = EDGE_LOOP ( 'NONE', ( #361, #189 ) ) ;
#143 = DIRECTION ( 'NONE',  ( 4.275831445896959482E-31, 1.000000000000000000, 1.224646799147353454E-16 ) ) ;
#144 = PERSON_AND_ORGANIZATION ( #311, #320 ) ;
#145 = FACE_OUTER_BOUND ( 'NONE', #172, .T. ) ;
#146 = PERSON_AND_ORGANIZATION_ROLE ( 'creator' ) ;
#147 = DIRECTION ( 'NONE',  ( 4.275831445896959482E-31, 1.000000000000000000, 1.224646799147353454E-16 ) ) ;
#148 = AXIS2_PLACEMENT_3D ( 'NONE', #95, #10, #60 ) ;
#149 = CIRCLE ( 'NONE', #269, 9.799999999999997158 ) ;
#150 = APPROVAL_PERSON_ORGANIZATION ( #332, #72, #188 ) ;
#151 = CARTESIAN_POINT ( 'NONE',  ( 6.982962677686259808E-16, -2.435834570415088461E-17, 0.1999999999999997891 ) ) ;
#152 = APPROVAL ( #101, 'UNSPECIFIED' ) ;
#153 = CARTESIAN_POINT ( 'NONE',  ( 3.596225779008426977E-13, 9.999999999999987566, 103.0000000000000000 ) ) ;
#154 = DIRECTION ( 'NONE',  ( -4.237045877651918877E-31, -1.000000000000000000, -1.219727444046192488E-16 ) ) ;
#155 = EDGE_CURVE ( 'NONE', #266, #160, #12, .T. ) ;
#156 = VECTOR ( 'NONE', #44, 1000.000000000000000 ) ;
#157 = ORIENTED_EDGE ( 'NONE', *, *, #317, .T. ) ;
#158 = ORIENTED_EDGE ( 'NONE', *, *, #89, .T. ) ;
#159 = ORIENTED_EDGE ( 'NONE', *, *, #296, .F. ) ;
#160 = VERTEX_POINT ( 'NONE', #220 ) ;
#161 = LOCAL_TIME ( 7, 26, 11.00000000000000000, #77 ) ;
#162 = EDGE_CURVE ( 'NONE', #103, #130, #254, .T. ) ;
#163 = ORIENTED_EDGE ( 'NONE', *, *, #313, .T. ) ;
#164 = DIRECTION ( 'NONE',  ( 2.468850131082256666E-15, -0.7071067811865499042, 0.7071067811865451302 ) ) ;
#165 = DIRECTION ( 'NONE',  ( 3.491481338843133355E-15, -1.217917285207545432E-16, 1.000000000000000000 ) ) ;
#166 = ADVANCED_FACE ( 'NONE', ( #145 ), #223, .F. ) ;
#167 = LINE ( 'NONE', #28, #173 ) ;
#168 = LINE ( 'NONE', #110, #200 ) ;
#169 = LOCAL_TIME ( 7, 26, 11.00000000000000000, #286 ) ;
#170 =( NAMED_UNIT ( * ) SI_UNIT ( $, .STERADIAN. ) SOLID_ANGLE_UNIT ( ) );
#171 = EDGE_LOOP ( 'NONE', ( #210, #362 ) ) ;
#172 = EDGE_LOOP ( 'NONE', ( #25, #267 ) ) ;
#173 = VECTOR ( 'NONE', #242, 1000.000000000000000 ) ;
#174 = DIRECTION ( 'NONE',  ( -3.491481338843133355E-15, 1.224646799147353454E-16, -1.000000000000000000 ) ) ;
#175 = APPROVAL_STATUS ( 'not_yet_approved' ) ;
#176 = CARTESIAN_POINT ( 'NONE',  ( 0.000000000000000000, 0.000000000000000000, 0.000000000000000000 ) ) ;
#177 = DATE_AND_TIME ( #202, #83 ) ;
#178 = DIRECTION ( 'NONE',  ( -3.491481338843133355E-15, 1.224646799147353454E-16, -1.000000000000000000 ) ) ;
#179 = CC_DESIGN_PERSON_AND_ORGANIZATION_ASSIGNMENT ( #132, #299, ( #8 ) ) ;
#180 = AXIS2_PLACEMENT_3D ( 'NONE', #34, #213, #143 ) ;
#181 = VECTOR ( 'NONE', #199, 1000.000000000000000 ) ;
#182 = PLANE ( 'NONE',  #289 ) ;
#183 = DIRECTION ( 'NONE',  ( 3.491481338843133355E-15, -1.217917285207545432E-16, 1.000000000000000000 ) ) ;
#184 = DATE_AND_TIME ( #253, #169 ) ;
#185 = CARTESIAN_POINT ( 'NONE',  ( 1.396592535537253342E-13, 9.999999999999994671, 40.00000000000000000 ) ) ;
#186 = AXIS2_PLACEMENT_3D ( 'NONE', #27, #275, #86 ) ;
#187 = CONICAL_SURFACE ( 'NONE', #120, 10.00000000000000000, 0.7853981633974482790 ) ;
#188 = APPROVAL_ROLE ( '' ) ;
#189 = ORIENTED_EDGE ( 'NONE', *, *, #317, .F. ) ;
#190 = ORIENTED_EDGE ( 'NONE', *, *, #257, .F. ) ;
#191 = APPROVAL_DATE_TIME ( #355, #152 ) ;
#192 = DATE_AND_TIME ( #73, #161 ) ;
#193 = DIRECTION ( 'NONE',  ( 4.275831445896958607E-31, 1.000000000000000000, 1.224646799147353454E-16 ) ) ;
#194 = ADVANCED_FACE ( 'NONE', ( #256 ), #319, .T. ) ;
#195 = DIRECTION ( 'NONE',  ( 3.491481338843133355E-15, -1.217917285207545432E-16, 1.000000000000000000 ) ) ;
#196 = CIRCLE ( 'NONE', #262, 10.00000000000000000 ) ;
#197 = CARTESIAN_POINT ( 'NONE',  ( 7.017877491074699937E-14, 10.00000000000000000, 0.2000000000000010103 ) ) ;
#198 = APPROVAL ( #175, 'UNSPECIFIED' ) ;
#199 = DIRECTION ( 'NONE',  ( -2.382254525458716681E-15, -0.7071067811865474617, -0.7071067811865476838 ) ) ;
#200 = VECTOR ( 'NONE', #141, 1000.000000000000000 ) ;
#201 = CARTESIAN_POINT ( 'NONE',  ( 1.224646799147348918E-15, -10.00000000000000000, -1.224646799147357595E-15 ) ) ;
#202 = CALENDAR_DATE ( 2023, 3, 4 ) ;
#203 = LOCAL_TIME ( 7, 26, 11.00000000000000000, #234 ) ;
#204 = CARTESIAN_POINT ( 'NONE',  ( 1.561548465040198954E-15, 9.799999999999997158, -5.392603844284260389E-30 ) ) ;
#205 = DIRECTION ( 'NONE',  ( -3.491481338843133355E-15, 1.224646799147353454E-16, -1.000000000000000000 ) ) ;
#206 = VERTEX_POINT ( 'NONE', #351 ) ;
#207 = ORIENTED_EDGE ( 'NONE', *, *, #306, .F. ) ;
#208 = CC_DESIGN_APPROVAL ( #198, ( #259 ) ) ;
#209 = ORIENTED_EDGE ( 'NONE', *, *, #244, .F. ) ;
#210 = ORIENTED_EDGE ( 'NONE', *, *, #249, .F. ) ;
#211 = ORIENTED_EDGE ( 'NONE', *, *, #278, .T. ) ;
#212 = DIRECTION ( 'NONE',  ( 0.000000000000000000, 1.000000000000000000, 0.000000000000000000 ) ) ;
#213 = DIRECTION ( 'NONE',  ( -3.491481338843133355E-15, 1.224646799147353454E-16, -1.000000000000000000 ) ) ;
#214 = LINE ( 'NONE', #3, #327 ) ;
#215 = ADVANCED_FACE ( 'NONE', ( #285 ), #314, .T. ) ;
#216 = CARTESIAN_POINT ( 'NONE',  ( 6.982962677686217407E-16, -10.00000000000000000, 0.1999999999999985678 ) ) ;
#217 = APPLICATION_PROTOCOL_DEFINITION ( 'international standard', 'config_control_design', 1994, #98 ) ;
#218 = UNCERTAINTY_MEASURE_WITH_UNIT (LENGTH_MEASURE( 1.000000000000000082E-05 ), #137, 'distance_accuracy_value', 'NONE');
#219 = EDGE_LOOP ( 'NONE', ( #22, #108, #158, #303 ) ) ;
#220 = CARTESIAN_POINT ( 'NONE',  ( 2.508655625264313422E-13, -10.00000000000000533, 40.00000000000000000 ) ) ;
#221 = CARTESIAN_POINT ( 'NONE',  ( 2.508655625264312917E-13, -10.00000000000001421, 103.0000000000000000 ) ) ;
#222 = DIRECTION ( 'NONE',  ( -4.275831445896959482E-31, -1.000000000000000000, -1.224646799147353454E-16 ) ) ;
#223 = PLANE ( 'NONE',  #59 ) ;
#224 = ADVANCED_FACE ( 'NONE', ( #318 ), #62, .T. ) ;
#225 = DIRECTION ( 'NONE',  ( 4.275831445896958607E-31, 1.000000000000000000, 1.224646799147353454E-16 ) ) ;
#226 = VECTOR ( 'NONE', #164, 1000.000000000000114 ) ;
#227 = FACE_OUTER_BOUND ( 'NONE', #298, .T. ) ;
#228 = DATE_AND_TIME ( #359, #203 ) ;
#229 = EDGE_LOOP ( 'NONE', ( #50, #74, #106, #190 ) ) ;
#230 = VERTEX_POINT ( 'NONE', #123 ) ;
#231 = ADVANCED_FACE ( 'NONE', ( #292 ), #38, .T. ) ;
#232 = CC_DESIGN_PERSON_AND_ORGANIZATION_ASSIGNMENT ( #17, #21, ( #309 ) ) ;
#233 = AXIS2_PLACEMENT_3D ( 'NONE', #291, #36, #41 ) ;
#234 = COORDINATED_UNIVERSAL_TIME_OFFSET ( 1, 0, .AHEAD. ) ;
#235 = ORIENTED_EDGE ( 'NONE', *, *, #244, .T. ) ;
#236 = ORIENTED_EDGE ( 'NONE', *, *, #162, .T. ) ;
#237 = VERTEX_POINT ( 'NONE', #153 ) ;
#238 = CARTESIAN_POINT ( 'NONE',  ( 0.000000000000000000, 0.000000000000000000, 0.000000000000000000 ) ) ;
#239 = CIRCLE ( 'NONE', #240, 9.000000000000000000 ) ;
#240 = AXIS2_PLACEMENT_3D ( 'NONE', #352, #43, #124 ) ;
#241 = CARTESIAN_POINT ( 'NONE',  ( -4.167288764085501369E-30, 1.453656063335170829E-31, -1.193558939503394119E-15 ) ) ;
#242 = DIRECTION ( 'NONE',  ( -2.468850131082265344E-15, 0.7071067811865476838, -0.7071067811865474617 ) ) ;
#243 = DIRECTION ( 'NONE',  ( -3.491481338843133355E-15, 1.224646799147353454E-16, -1.000000000000000000 ) ) ;
#244 = EDGE_CURVE ( 'NONE', #237, #131, #196, .T. ) ;
#245 = DIRECTION ( 'NONE',  ( -4.237045877651918877E-31, -1.000000000000000000, -1.219727444046192488E-16 ) ) ;
#246 = MECHANICAL_CONTEXT ( 'NONE', #98, 'mechanical' ) ;
#247 = APPROVAL_PERSON_ORGANIZATION ( #105, #152, #75 ) ;
#248 = DESIGN_CONTEXT ( 'detailed design', #88, 'design' ) ;
#249 = EDGE_CURVE ( 'NONE', #206, #230, #239, .T. ) ;
#250 = DIRECTION ( 'NONE',  ( 0.000000000000000000, 1.000000000000000000, 0.000000000000000000 ) ) ;
#251 = APPLICATION_PROTOCOL_DEFINITION ( 'international standard', 'config_control_design', 1994, #88 ) ;
#252 = LINE ( 'NONE', #201, #63 ) ;
#253 = CALENDAR_DATE ( 2023, 3, 4 ) ;
#254 = CIRCLE ( 'NONE', #315, 10.00000000000000000 ) ;
#255 = CIRCLE ( 'NONE', #104, 10.00000000000000000 ) ;
#256 = FACE_OUTER_BOUND ( 'NONE', #18, .T. ) ;
#257 = EDGE_CURVE ( 'NONE', #52, #103, #66, .T. ) ;
#258 = CARTESIAN_POINT ( 'NONE',  ( 3.596225779008426977E-13, -1.261386203121773919E-14, 103.0000000000000000 ) ) ;
#259 = PRODUCT_DEFINITION ( 'UNKNOWN', '', #309, #248 ) ;
#260 = CARTESIAN_POINT ( 'NONE',  ( 1.396592535537253342E-13, -4.898587196589413815E-15, 40.00000000000000000 ) ) ;
#261 = PERSON_AND_ORGANIZATION ( #311, #320 ) ;
#262 = AXIS2_PLACEMENT_3D ( 'NONE', #258, #15, #250 ) ;
#263 = APPROVAL_PERSON_ORGANIZATION ( #348, #198, #116 ) ;
#264 = EDGE_LOOP ( 'NONE', ( #67, #333 ) ) ;
#265 = CALENDAR_DATE ( 2023, 3, 4 ) ;
#266 = VERTEX_POINT ( 'NONE', #185 ) ;
#267 = ORIENTED_EDGE ( 'NONE', *, *, #306, .T. ) ;
#268 = CLOSED_SHELL ( 'NONE', ( #194, #324, #284, #134, #231, #107 ) ) ;
#269 = AXIS2_PLACEMENT_3D ( 'NONE', #241, #279, #344 ) ;
#270 = ORIENTED_EDGE ( 'NONE', *, *, #343, .F. ) ;
#271 = ORIENTED_EDGE ( 'NONE', *, *, #155, .F. ) ;
#272 = DIRECTION ( 'NONE',  ( 4.275831445896958607E-31, 1.000000000000000000, 1.224646799147353454E-16 ) ) ;
#273 = AXIS2_PLACEMENT_3D ( 'NONE', #97, #91, #222 ) ;
#274 = AXIS2_PLACEMENT_3D ( 'NONE', #109, #304, #85 ) ;
#275 = DIRECTION ( 'NONE',  ( -3.491481338843133355E-15, 1.224646799147353454E-16, -1.000000000000000000 ) ) ;
#276 = CC_DESIGN_APPROVAL ( #152, ( #8 ) ) ;
#277 = FACE_OUTER_BOUND ( 'NONE', #219, .T. ) ;
#278 = EDGE_CURVE ( 'NONE', #330, #52, #1, .T. ) ;
#279 = DIRECTION ( 'NONE',  ( 3.491481338843133355E-15, -1.217917285207545432E-16, 1.000000000000000000 ) ) ;
#280 = CC_DESIGN_DATE_AND_TIME_ASSIGNMENT ( #228, #24, ( #8 ) ) ;
#281 = DIRECTION ( 'NONE',  ( -3.491481338843133355E-15, 1.224646799147353454E-16, -1.000000000000000000 ) ) ;
#282 = FACE_OUTER_BOUND ( 'NONE', #171, .T. ) ;
#283 = CARTESIAN_POINT ( 'NONE',  ( 3.596225779008426977E-13, -1.261386203121773919E-14, 103.0000000000000000 ) ) ;
#284 = ADVANCED_FACE ( 'NONE', ( #227 ), #100, .T. ) ;
#285 = FACE_OUTER_BOUND ( 'NONE', #76, .T. ) ;
#286 = COORDINATED_UNIVERSAL_TIME_OFFSET ( 1, 0, .AHEAD. ) ;
#287 = ADVANCED_BREP_SHAPE_REPRESENTATION ( '367639', ( #112, #356, #70 ), #290 ) ;
#288 = EDGE_CURVE ( 'NONE', #237, #266, #168, .T. ) ;
#289 = AXIS2_PLACEMENT_3D ( 'NONE', #121, #346, #147 ) ;
#290 =( GEOMETRIC_REPRESENTATION_CONTEXT ( 3 ) GLOBAL_UNCERTAINTY_ASSIGNED_CONTEXT ( ( #218 ) ) GLOBAL_UNIT_ASSIGNED_CONTEXT ( ( #137, #80, #170 ) ) REPRESENTATION_CONTEXT ( 'NONE', 'WORKASPACE' ) );
#291 = CARTESIAN_POINT ( 'NONE',  ( 6.982962677686259808E-16, -2.435834570415088461E-17, 0.1999999999999997891 ) ) ;
#292 = FACE_OUTER_BOUND ( 'NONE', #357, .T. ) ;
#293 = APPROVAL_DATE_TIME ( #184, #198 ) ;
#294 = CARTESIAN_POINT ( 'NONE',  ( 0.000000000000000000, 0.000000000000000000, 0.000000000000000000 ) ) ;
#295 = ORIENTED_EDGE ( 'NONE', *, *, #354, .T. ) ;
#296 = EDGE_CURVE ( 'NONE', #131, #160, #214, .T. ) ;
#297 = AXIS2_PLACEMENT_3D ( 'NONE', #335, #53, #139 ) ;
#298 = EDGE_LOOP ( 'NONE', ( #133, #211, #135, #236 ) ) ;
#299 = PERSON_AND_ORGANIZATION_ROLE ( 'classification_officer' ) ;
#300 = ORIENTED_EDGE ( 'NONE', *, *, #296, .T. ) ;
#301 = EDGE_LOOP ( 'NONE', ( #49, #295, #209, #360 ) ) ;
#302 = ADVANCED_FACE ( 'NONE', ( #54 ), #187, .T. ) ;
#303 = ORIENTED_EDGE ( 'NONE', *, *, #313, .F. ) ;
#304 = DIRECTION ( 'NONE',  ( -3.491481338843133355E-15, 1.224646799147353454E-16, -1.000000000000000000 ) ) ;
#305 = CARTESIAN_POINT ( 'NONE',  ( 0.000000000000000000, 0.000000000000000000, 0.000000000000000000 ) ) ;
#306 = EDGE_CURVE ( 'NONE', #160, #266, #39, .T. ) ;
#307 = AXIS2_PLACEMENT_3D ( 'NONE', #65, #61, #122 ) ;
#308 = CC_DESIGN_PERSON_AND_ORGANIZATION_ASSIGNMENT ( #261, #325, ( #309 ) ) ;
#309 = PRODUCT_DEFINITION_FORMATION_WITH_SPECIFIED_SOURCE ( 'ANY', '', #71, .NOT_KNOWN. ) ;
#310 = DIRECTION ( 'NONE',  ( 0.000000000000000000, 1.000000000000000000, 0.000000000000000000 ) ) ;
#311 = PERSON ( 'UNSPECIFIED', 'UNSPECIFIED', 'UNSPECIFIED', ('UNSPECIFIED'), ('UNSPECIFIED'), ('UNSPECIFIED') ) ;
#312 = CARTESIAN_POINT ( 'NONE',  ( 6.982962677686259808E-16, -2.435834570415088461E-17, 0.1999999999999997891 ) ) ;
#313 = EDGE_CURVE ( 'NONE', #131, #237, #255, .T. ) ;
#314 = CYLINDRICAL_SURFACE ( 'NONE', #148, 10.00000000000000000 ) ;
#315 = AXIS2_PLACEMENT_3D ( 'NONE', #151, #183, #154 ) ;
#316 = DIRECTION ( 'NONE',  ( 3.491481338843133355E-15, -1.224646799147353454E-16, 1.000000000000000000 ) ) ;
#317 = EDGE_CURVE ( 'NONE', #138, #69, #149, .T. ) ;
#318 = FACE_OUTER_BOUND ( 'NONE', #46, .T. ) ;
#319 = CONICAL_SURFACE ( 'NONE', #307, 10.00000000000000000, 0.7853981633974514986 ) ;
#320 = ORGANIZATION ( 'UNSPECIFIED', 'UNSPECIFIED', '' ) ;
#321 = CARTESIAN_POINT ( 'NONE',  ( 1.396592535537253342E-13, -4.898587196589413815E-15, 40.00000000000000000 ) ) ;
#322 = DIRECTION ( 'NONE',  ( 0.000000000000000000, 1.000000000000000000, 0.000000000000000000 ) ) ;
#323 = ORIENTED_EDGE ( 'NONE', *, *, #162, .F. ) ;
#324 = ADVANCED_FACE ( 'NONE', ( #87 ), #29, .T. ) ;
#325 = PERSON_AND_ORGANIZATION_ROLE ( 'creator' ) ;
#326 = ORIENTED_EDGE ( 'NONE', *, *, #350, .F. ) ;
#327 = VECTOR ( 'NONE', #337, 1000.000000000000000 ) ;
#328 = DATE_TIME_ROLE ( 'creation_date' ) ;
#329 = EDGE_CURVE ( 'NONE', #230, #206, #64, .T. ) ;
#330 = VERTEX_POINT ( 'NONE', #35 ) ;
#331 = CC_DESIGN_PERSON_AND_ORGANIZATION_ASSIGNMENT ( #363, #99, ( #71 ) ) ;
#332 = PERSON_AND_ORGANIZATION ( #311, #320 ) ;
#333 = ORIENTED_EDGE ( 'NONE', *, *, #278, .F. ) ;
#334 = AXIS2_PLACEMENT_3D ( 'NONE', #30, #341, #84 ) ;
#335 = CARTESIAN_POINT ( 'NONE',  ( 3.631140592396858689E-13, -1.273632671113247592E-14, 104.0000000000000000 ) ) ;
#336 = CARTESIAN_POINT ( 'NONE',  ( -8.334577528171002738E-30, -9.799999999999997158, -2.387117879006788239E-15 ) ) ;
#337 = DIRECTION ( 'NONE',  ( -3.491481338843133355E-15, 1.224646799147353454E-16, -1.000000000000000000 ) ) ;
#338 = PLANE ( 'NONE',  #180 ) ;
#339 = LINE ( 'NONE', #31, #51 ) ;
#340 = AXIS2_PLACEMENT_3D ( 'NONE', #260, #353, #322 ) ;
#341 = DIRECTION ( 'NONE',  ( -3.491481338843133355E-15, 1.224646799147353454E-16, -1.000000000000000000 ) ) ;
#342 = AXIS2_PLACEMENT_3D ( 'NONE', #305, #281, #272 ) ;
#343 = EDGE_CURVE ( 'NONE', #130, #103, #23, .T. ) ;
#344 = DIRECTION ( 'NONE',  ( -4.252335473556634944E-31, -1.000000000000000000, -1.217917285207545432E-16 ) ) ;
#345 = DIRECTION ( 'NONE',  ( -3.491481338843133355E-15, 1.224646799147353454E-16, -1.000000000000000000 ) ) ;
#346 = DIRECTION ( 'NONE',  ( -3.491481338843133355E-15, 1.224646799147353454E-16, -1.000000000000000000 ) ) ;
#347 = AXIS2_PLACEMENT_3D ( 'NONE', #81, #195, #113 ) ;
#348 = PERSON_AND_ORGANIZATION ( #311, #320 ) ;
#349 = CARTESIAN_POINT ( 'NONE',  ( 1.396592535537253342E-13, 7.498798913309283660E-32, 40.00000000000000000 ) ) ;
#350 = EDGE_CURVE ( 'NONE', #138, #103, #339, .T. ) ;
#351 = CARTESIAN_POINT ( 'NONE',  ( 3.631140592396858689E-13, 8.999999999999987566, 104.0000000000000000 ) ) ;
#352 = CARTESIAN_POINT ( 'NONE',  ( 3.631140592396858689E-13, -1.273632671113247592E-14, 104.0000000000000000 ) ) ;
#353 = DIRECTION ( 'NONE',  ( -3.491481338843133355E-15, 1.224646799147353454E-16, -1.000000000000000000 ) ) ;
#354 = EDGE_CURVE ( 'NONE', #230, #131, #111, .T. ) ;
#355 = DATE_AND_TIME ( #265, #127 ) ;
#356 = MANIFOLD_SOLID_BREP ( 'Corps-Déplacer/Copier1[2]', #268 ) ;
#357 = EDGE_LOOP ( 'NONE', ( #326, #157, #78, #323 ) ) ;
#358 = AXIS2_PLACEMENT_3D ( 'NONE', #176, #174, #225 ) ;
#359 = CALENDAR_DATE ( 2023, 3, 4 ) ;
#360 = ORIENTED_EDGE ( 'NONE', *, *, #89, .F. ) ;
#361 = ORIENTED_EDGE ( 'NONE', *, *, #94, .F. ) ;
#362 = ORIENTED_EDGE ( 'NONE', *, *, #329, .F. ) ;
#363 = PERSON_AND_ORGANIZATION ( #311, #320 ) ;
ENDSEC;
END-ISO-10303-21;
