ISO-10303-21;
HEADER;
FILE_DESCRIPTION (( 'STEP AP203' ),
    '1' );
FILE_NAME ('367637.step',
    '2023-03-31T11:57:12',
    ( '' ),
    ( '' ),
    'SwSTEP 2.0',
    'SolidWorks 2022',
    '' );
FILE_SCHEMA (( 'CONFIG_CONTROL_DESIGN' ));
ENDSEC;

DATA;
#1 = CLOSED_SHELL ( 'NONE', ( #358, #291, #140, #203, #43, #259 ) ) ;
#2 = ORGANIZATION ( 'UNSPECIFIED', 'UNSPECIFIED', '' ) ;
#3 = DIRECTION ( 'NONE',  ( -4.237045877651918877E-31, -1.000000000000000000, -1.219727444046192488E-16 ) ) ;
#4 = DIRECTION ( 'NONE',  ( -3.491481338843133355E-15, 1.224646799147353454E-16, -1.000000000000000000 ) ) ;
#5 = DIRECTION ( 'NONE',  ( -3.491481338843133355E-15, 1.224646799147353454E-16, -1.000000000000000000 ) ) ;
#6 = ADVANCED_FACE ( 'NONE', ( #193 ), #339, .T. ) ;
#7 = CC_DESIGN_DATE_AND_TIME_ASSIGNMENT ( #114, #64, ( #275 ) ) ;
#8 = FACE_OUTER_BOUND ( 'NONE', #83, .T. ) ;
#9 = AXIS2_PLACEMENT_3D ( 'NONE', #139, #337, #134 ) ;
#10 = AXIS2_PLACEMENT_3D ( 'NONE', #331, #23, #160 ) ;
#11 = PERSON_AND_ORGANIZATION ( #115, #2 ) ;
#12 = COORDINATED_UNIVERSAL_TIME_OFFSET ( 1, 0, .AHEAD. ) ;
#13 = APPROVAL_ROLE ( '' ) ;
#14 = ORIENTED_EDGE ( 'NONE', *, *, #344, .T. ) ;
#15 = APPROVAL_STATUS ( 'not_yet_approved' ) ;
#16 = LOCAL_TIME ( 13, 57, 12.00000000000000000, #258 ) ;
#17 = EDGE_LOOP ( 'NONE', ( #242, #244 ) ) ;
#18 = FACE_OUTER_BOUND ( 'NONE', #44, .T. ) ;
#19 = VERTEX_POINT ( 'NONE', #89 ) ;
#20 = CIRCLE ( 'NONE', #299, 10.00000000000000000 ) ;
#21 = ORIENTED_EDGE ( 'NONE', *, *, #35, .T. ) ;
#22 = AXIS2_PLACEMENT_3D ( 'NONE', #350, #204, #73 ) ;
#23 = DIRECTION ( 'NONE',  ( -3.491481338843133355E-15, 1.224646799147353454E-16, -1.000000000000000000 ) ) ;
#24 = FACE_OUTER_BOUND ( 'NONE', #56, .T. ) ;
#25 = APPLICATION_CONTEXT ( 'configuration controlled 3d designs of mechanical parts and assemblies' ) ;
#26 = CARTESIAN_POINT ( 'NONE',  ( 1.396592535537253342E-13, -4.898587196589413815E-15, 40.00000000000000000 ) ) ;
#27 = EDGE_CURVE ( 'NONE', #74, #78, #70, .T. ) ;
#28 = LOCAL_TIME ( 13, 57, 12.00000000000000000, #304 ) ;
#29 = DIRECTION ( 'NONE',  ( 0.000000000000000000, 1.000000000000000000, 0.000000000000000000 ) ) ;
#30 = COORDINATED_UNIVERSAL_TIME_OFFSET ( 1, 0, .AHEAD. ) ;
#31 = AXIS2_PLACEMENT_3D ( 'NONE', #354, #97, #120 ) ;
#32 = DIRECTION ( 'NONE',  ( -3.491481338843133355E-15, 1.224646799147353454E-16, -1.000000000000000000 ) ) ;
#33 = APPROVAL_DATE_TIME ( #311, #146 ) ;
#34 = FACE_OUTER_BOUND ( 'NONE', #156, .T. ) ;
#35 = EDGE_CURVE ( 'NONE', #78, #274, #257, .T. ) ;
#36 = APPLICATION_CONTEXT ( 'configuration controlled 3d designs of mechanical parts and assemblies' ) ;
#37 = FACE_OUTER_BOUND ( 'NONE', #250, .T. ) ;
#38 = DATE_AND_TIME ( #167, #233 ) ;
#39 = VECTOR ( 'NONE', #157, 1000.000000000000000 ) ;
#40 = PLANE ( 'NONE',  #93 ) ;
#41 = CONICAL_SURFACE ( 'NONE', #220, 10.00000000000000000, 0.7853981633974482790 ) ;
#42 = DIRECTION ( 'NONE',  ( 3.491481338843133355E-15, -1.217917285207545432E-16, 1.000000000000000000 ) ) ;
#43 = ADVANCED_FACE ( 'NONE', ( #224 ), #101, .T. ) ;
#44 = EDGE_LOOP ( 'NONE', ( #239, #14, #355, #208 ) ) ;
#45 = VECTOR ( 'NONE', #32, 1000.000000000000000 ) ;
#46 = AXIS2_PLACEMENT_3D ( 'NONE', #325, #262, #241 ) ;
#47 = ORIENTED_EDGE ( 'NONE', *, *, #127, .F. ) ;
#48 = DIRECTION ( 'NONE',  ( -3.491481338843133355E-15, 1.224646799147353454E-16, -1.000000000000000000 ) ) ;
#49 = ORIENTED_EDGE ( 'NONE', *, *, #184, .F. ) ;
#50 = FACE_OUTER_BOUND ( 'NONE', #335, .T. ) ;
#51 = ORIENTED_EDGE ( 'NONE', *, *, #52, .T. ) ;
#52 = EDGE_CURVE ( 'NONE', #307, #187, #312, .T. ) ;
#53 = DIRECTION ( 'NONE',  ( -3.491481338843133355E-15, 1.224646799147353454E-16, -1.000000000000000000 ) ) ;
#54 = AXIS2_PLACEMENT_3D ( 'NONE', #100, #306, #245 ) ;
#55 = FACE_OUTER_BOUND ( 'NONE', #133, .T. ) ;
#56 = EDGE_LOOP ( 'NONE', ( #328, #180, #352, #130 ) ) ;
#57 = DIRECTION ( 'NONE',  ( 0.000000000000000000, 0.000000000000000000, 1.000000000000000000 ) ) ;
#58 = CARTESIAN_POINT ( 'NONE',  ( 1.922943066915982097E-15, 10.00000000000000000, 0.2000000000000006495 ) ) ;
#59 = SECURITY_CLASSIFICATION_LEVEL ( 'unclassified' ) ;
#60 = CARTESIAN_POINT ( 'NONE',  ( 1.561548465040198363E-15, 9.799999999999998934, -2.710505431214300345E-17 ) ) ;
#61 = CONICAL_SURFACE ( 'NONE', #161, 10.00000000000000000, 0.7853981633974482790 ) ;
#62 = EDGE_CURVE ( 'NONE', #303, #159, #96, .T. ) ;
#63 = CARTESIAN_POINT ( 'NONE',  ( 3.596225779008426977E-13, -1.261386203121773919E-14, 103.0000000000000000 ) ) ;
#64 = DATE_TIME_ROLE ( 'classification_date' ) ;
#65 = AXIS2_PLACEMENT_3D ( 'NONE', #26, #361, #188 ) ;
#66 = AXIS2_PLACEMENT_3D ( 'NONE', #82, #359, #210 ) ;
#67 = DESIGN_CONTEXT ( 'detailed design', #36, 'design' ) ;
#68 = DATE_TIME_ROLE ( 'creation_date' ) ;
#69 = DIRECTION ( 'NONE',  ( -4.237045877651918877E-31, -1.000000000000000000, -1.219727444046192488E-16 ) ) ;
#70 = CIRCLE ( 'NONE', #190, 10.00000000000000000 ) ;
#71 = DIRECTION ( 'NONE',  ( -3.491481338843133355E-15, 1.224646799147353454E-16, -1.000000000000000000 ) ) ;
#72 = PERSON_AND_ORGANIZATION ( #115, #2 ) ;
#73 = DIRECTION ( 'NONE',  ( -4.275831445896959482E-31, -1.000000000000000000, -1.224646799147353454E-16 ) ) ;
#74 = VERTEX_POINT ( 'NONE', #218 ) ;
#75 = DIRECTION ( 'NONE',  ( -3.491481338843133355E-15, 1.224646799147353454E-16, -1.000000000000000000 ) ) ;
#76 = VECTOR ( 'NONE', #189, 999.9999999999998863 ) ;
#77 = VECTOR ( 'NONE', #75, 1000.000000000000000 ) ;
#78 = VERTEX_POINT ( 'NONE', #136 ) ;
#79 = DIRECTION ( 'NONE',  ( 1.000000000000000000, 0.000000000000000000, 0.000000000000000000 ) ) ;
#80 = APPROVAL ( #15, 'UNSPECIFIED' ) ;
#81 = EDGE_LOOP ( 'NONE', ( #276, #326, #21, #247 ) ) ;
#82 = CARTESIAN_POINT ( 'NONE',  ( -2.137915722948479478E-30, 7.498798913309291323E-32, -6.123233995736767268E-16 ) ) ;
#83 = EDGE_LOOP ( 'NONE', ( #103, #51, #283, #99 ) ) ;
#84 = DIRECTION ( 'NONE',  ( -3.491481338843133355E-15, 1.224646799147353454E-16, -1.000000000000000000 ) ) ;
#85 = PRODUCT_DEFINITION_FORMATION_WITH_SPECIFIED_SOURCE ( 'ANY', '', #118, .NOT_KNOWN. ) ;
#86 = CC_DESIGN_PERSON_AND_ORGANIZATION_ASSIGNMENT ( #223, #135, ( #85 ) ) ;
#87 = CARTESIAN_POINT ( 'NONE',  ( 7.017877491074699937E-14, 10.00000000000000000, 0.2000000000000006495 ) ) ;
#88 = LINE ( 'NONE', #309, #76 ) ;
#89 = CARTESIAN_POINT ( 'NONE',  ( 2.508655625264313422E-13, -10.00000000000000533, 40.00000000000000000 ) ) ;
#90 = EDGE_LOOP ( 'NONE', ( #240, #168 ) ) ;
#91 = DIRECTION ( 'NONE',  ( -4.237045877651918877E-31, -1.000000000000000000, -1.219727444046192488E-16 ) ) ;
#92 = AXIS2_PLACEMENT_3D ( 'NONE', #341, #53, #105 ) ;
#93 = AXIS2_PLACEMENT_3D ( 'NONE', #94, #71, #196 ) ;
#94 = CARTESIAN_POINT ( 'NONE',  ( 3.631140592396858689E-13, 6.748919021978343909E-32, 104.0000000000000000 ) ) ;
#95 = EDGE_CURVE ( 'NONE', #19, #274, #20, .T. ) ;
#96 = CIRCLE ( 'NONE', #92, 9.000000000000000000 ) ;
#97 = DIRECTION ( 'NONE',  ( 3.491481338843133355E-15, -1.224646799147353454E-16, 1.000000000000000000 ) ) ;
#98 = DIRECTION ( 'NONE',  ( -3.491481338843133355E-15, 1.224646799147353454E-16, -1.000000000000000000 ) ) ;
#99 = ORIENTED_EDGE ( 'NONE', *, *, #184, .T. ) ;
#100 = CARTESIAN_POINT ( 'NONE',  ( 6.982962677686246989E-16, -2.435834570415083839E-17, 0.1999999999999994282 ) ) ;
#101 = CONICAL_SURFACE ( 'NONE', #253, 10.00000000000000000, 0.7853981633974479459 ) ;
#102 = CC_DESIGN_SECURITY_CLASSIFICATION ( #275, ( #85 ) ) ;
#103 = ORIENTED_EDGE ( 'NONE', *, *, #344, .F. ) ;
#104 = PERSON_AND_ORGANIZATION ( #115, #2 ) ;
#105 = DIRECTION ( 'NONE',  ( 0.000000000000000000, 1.000000000000000000, 0.000000000000000000 ) ) ;
#106 = DIRECTION ( 'NONE',  ( 0.000000000000000000, 1.000000000000000000, 0.000000000000000000 ) ) ;
#107 = VECTOR ( 'NONE', #172, 1000.000000000000000 ) ;
#108 = DIRECTION ( 'NONE',  ( 4.275831445896958607E-31, 1.000000000000000000, 1.224646799147353454E-16 ) ) ;
#109 = PERSON_AND_ORGANIZATION_ROLE ( 'classification_officer' ) ;
#110 = CARTESIAN_POINT ( 'NONE',  ( 3.596225779008426977E-13, -1.261386203121773919E-14, 103.0000000000000000 ) ) ;
#111 = ADVANCED_FACE ( 'NONE', ( #24 ), #342, .T. ) ;
#112 = CARTESIAN_POINT ( 'NONE',  ( 0.000000000000000000, 0.000000000000000000, 0.000000000000000000 ) ) ;
#113 = CARTESIAN_POINT ( 'NONE',  ( 3.596225779008426977E-13, 9.999999999999987566, 103.0000000000000000 ) ) ;
#114 = DATE_AND_TIME ( #143, #137 ) ;
#115 = PERSON ( 'UNSPECIFIED', 'UNSPECIFIED', 'UNSPECIFIED', ('UNSPECIFIED'), ('UNSPECIFIED'), ('UNSPECIFIED') ) ;
#116 = ADVANCED_FACE ( 'NONE', ( #34 ), #41, .T. ) ;
#117 = CARTESIAN_POINT ( 'NONE',  ( -4.261925555404660302E-30, 1.486667777498412924E-31, -1.220663993815532125E-15 ) ) ;
#118 = PRODUCT ( '367637', '367637', '', ( #273 ) ) ;
#119 = DIRECTION ( 'NONE',  ( -4.252335473556634944E-31, -1.000000000000000000, -1.217917285207545432E-16 ) ) ;
#120 = DIRECTION ( 'NONE',  ( -4.275831445896959482E-31, -1.000000000000000000, -1.224646799147353454E-16 ) ) ;
#121 = CC_DESIGN_APPROVAL ( #356, ( #275 ) ) ;
#122 = ORIENTED_EDGE ( 'NONE', *, *, #319, .T. ) ;
#123 = CARTESIAN_POINT ( 'NONE',  ( 1.396592535537253342E-13, 9.999999999999994671, 40.00000000000000000 ) ) ;
#124 = ORIENTED_EDGE ( 'NONE', *, *, #237, .T. ) ;
#125 =( NAMED_UNIT ( * ) PLANE_ANGLE_UNIT ( ) SI_UNIT ( $, .RADIAN. ) );
#126 = VERTEX_POINT ( 'NONE', #60 ) ;
#127 = EDGE_CURVE ( 'NONE', #295, #270, #88, .T. ) ;
#128 = CARTESIAN_POINT ( 'NONE',  ( 7.140342170989431299E-14, -10.00000000000000711, 40.00000000000000000 ) ) ;
#129 = VECTOR ( 'NONE', #310, 1000.000000000000000 ) ;
#130 = ORIENTED_EDGE ( 'NONE', *, *, #35, .F. ) ;
#131 = CARTESIAN_POINT ( 'NONE',  ( 6.982962677686246989E-16, -2.435834570415083839E-17, 0.1999999999999994282 ) ) ;
#132 = EDGE_CURVE ( 'NONE', #126, #333, #191, .T. ) ;
#133 = EDGE_LOOP ( 'NONE', ( #124, #272, #360, #47 ) ) ;
#134 = DIRECTION ( 'NONE',  ( 4.275831445896958607E-31, 1.000000000000000000, 1.224646799147353454E-16 ) ) ;
#135 = PERSON_AND_ORGANIZATION_ROLE ( 'creator' ) ;
#136 = CARTESIAN_POINT ( 'NONE',  ( 3.596225779008426977E-13, 9.999999999999987566, 103.0000000000000000 ) ) ;
#137 = LOCAL_TIME ( 13, 57, 12.00000000000000000, #30 ) ;
#138 = ORIENTED_EDGE ( 'NONE', *, *, #127, .T. ) ;
#139 = CARTESIAN_POINT ( 'NONE',  ( 0.000000000000000000, 0.000000000000000000, 0.000000000000000000 ) ) ;
#140 = ADVANCED_FACE ( 'NONE', ( #8 ), #255, .T. ) ;
#141 = CALENDAR_DATE ( 2023, 31, 3 ) ;
#142 = CARTESIAN_POINT ( 'NONE',  ( 1.396592535537253342E-13, -4.898587196589413815E-15, 40.00000000000000000 ) ) ;
#143 = CALENDAR_DATE ( 2023, 31, 3 ) ;
#144 = APPROVAL_PERSON_ORGANIZATION ( #214, #146, #182 ) ;
#145 = EDGE_CURVE ( 'NONE', #78, #74, #290, .T. ) ;
#146 = APPROVAL ( #334, 'UNSPECIFIED' ) ;
#147 = AXIS2_PLACEMENT_3D ( 'NONE', #142, #264, #148 ) ;
#148 = DIRECTION ( 'NONE',  ( 0.000000000000000000, 1.000000000000000000, 0.000000000000000000 ) ) ;
#149 = ORIENTED_EDGE ( 'NONE', *, *, #62, .T. ) ;
#150 = SHAPE_DEFINITION_REPRESENTATION ( #246, #266 ) ;
#151 = PRODUCT_DEFINITION ( 'UNKNOWN', '', #85, #67 ) ;
#152 = EDGE_CURVE ( 'NONE', #187, #333, #351, .T. ) ;
#153 = ORIENTED_EDGE ( 'NONE', *, *, #145, .F. ) ;
#154 = EDGE_CURVE ( 'NONE', #126, #295, #227, .T. ) ;
#155 = CARTESIAN_POINT ( 'NONE',  ( 7.140342170989433823E-14, -10.00000000000000000, 0.1999999999999982070 ) ) ;
#156 = EDGE_LOOP ( 'NONE', ( #149, #122, #153, #298 ) ) ;
#157 = DIRECTION ( 'NONE',  ( -2.382254525458716681E-15, -0.7071067811865474617, -0.7071067811865476838 ) ) ;
#158 = EDGE_CURVE ( 'NONE', #74, #19, #286, .T. ) ;
#159 = VERTEX_POINT ( 'NONE', #324 ) ;
#160 = DIRECTION ( 'NONE',  ( 4.275831445896958607E-31, 1.000000000000000000, 1.224646799147353454E-16 ) ) ;
#161 = AXIS2_PLACEMENT_3D ( 'NONE', #252, #48, #248 ) ;
#162 = DIRECTION ( 'NONE',  ( 4.275831445896958607E-31, 1.000000000000000000, 1.224646799147353454E-16 ) ) ;
#163 = FACE_OUTER_BOUND ( 'NONE', #183, .T. ) ;
#164 = ORIENTED_EDGE ( 'NONE', *, *, #230, .F. ) ;
#165 = LINE ( 'NONE', #362, #39 ) ;
#166 = CARTESIAN_POINT ( 'NONE',  ( 0.000000000000000000, 0.000000000000000000, 0.000000000000000000 ) ) ;
#167 = CALENDAR_DATE ( 2023, 31, 3 ) ;
#168 = ORIENTED_EDGE ( 'NONE', *, *, #226, .F. ) ;
#169 = CC_DESIGN_APPROVAL ( #80, ( #85 ) ) ;
#170 = DIRECTION ( 'NONE',  ( 0.000000000000000000, 1.000000000000000000, 0.000000000000000000 ) ) ;
#171 = PERSON_AND_ORGANIZATION ( #115, #2 ) ;
#172 = DIRECTION ( 'NONE',  ( -2.468850131082265344E-15, 0.7071067811865476838, -0.7071067811865474617 ) ) ;
#173 = VECTOR ( 'NONE', #294, 1000.000000000000000 ) ;
#174 = AXIS2_PLACEMENT_3D ( 'NONE', #63, #260, #170 ) ;
#175 = ORIENTED_EDGE ( 'NONE', *, *, #52, .F. ) ;
#176 = CARTESIAN_POINT ( 'NONE',  ( -4.261925555404660302E-30, 1.486667777498412924E-31, -1.220663993815532125E-15 ) ) ;
#177 = ORIENTED_EDGE ( 'NONE', *, *, #232, .T. ) ;
#178 = CIRCLE ( 'NONE', #330, 10.00000000000000000 ) ;
#179 = APPLICATION_PROTOCOL_DEFINITION ( 'international standard', 'config_control_design', 1994, #36 ) ;
#180 = ORIENTED_EDGE ( 'NONE', *, *, #158, .T. ) ;
#181 = ORIENTED_EDGE ( 'NONE', *, *, #226, .T. ) ;
#182 = APPROVAL_ROLE ( '' ) ;
#183 = EDGE_LOOP ( 'NONE', ( #267, #213 ) ) ;
#184 = EDGE_CURVE ( 'NONE', #333, #270, #178, .T. ) ;
#185 = PERSON_AND_ORGANIZATION_ROLE ( 'design_owner' ) ;
#186 = CIRCLE ( 'NONE', #147, 10.00000000000000000 ) ;
#187 = VERTEX_POINT ( 'NONE', #123 ) ;
#188 = DIRECTION ( 'NONE',  ( 0.000000000000000000, 1.000000000000000000, 0.000000000000000000 ) ) ;
#189 = DIRECTION ( 'NONE',  ( 2.468850131082266527E-15, -0.7071067811865473507, 0.7071067811865477948 ) ) ;
#190 = AXIS2_PLACEMENT_3D ( 'NONE', #110, #278, #106 ) ;
#191 = LINE ( 'NONE', #58, #129 ) ;
#192 = LOCAL_TIME ( 13, 57, 12.00000000000000000, #12 ) ;
#193 = FACE_OUTER_BOUND ( 'NONE', #81, .T. ) ;
#194 = CLOSED_SHELL ( 'NONE', ( #116, #111, #256, #6, #261, #251 ) ) ;
#195 = CIRCLE ( 'NONE', #46, 9.000000000000000000 ) ;
#196 = DIRECTION ( 'NONE',  ( 4.275831445896959482E-31, 1.000000000000000000, 1.224646799147353454E-16 ) ) ;
#197 = CARTESIAN_POINT ( 'NONE',  ( 6.982962677686246989E-16, -2.435834570415083839E-17, 0.1999999999999994282 ) ) ;
#198 = PRODUCT_RELATED_PRODUCT_CATEGORY ( 'detail', '', ( #118 ) ) ;
#199 = CALENDAR_DATE ( 2023, 31, 3 ) ;
#200 = AXIS2_PLACEMENT_3D ( 'NONE', #166, #4, #108 ) ;
#201 = AXIS2_PLACEMENT_3D ( 'NONE', #117, #234, #119 ) ;
#202 = CALENDAR_DATE ( 2023, 31, 3 ) ;
#203 = ADVANCED_FACE ( 'NONE', ( #37 ), #322, .T. ) ;
#204 = DIRECTION ( 'NONE',  ( 3.491481338843133355E-15, -1.224646799147353454E-16, 1.000000000000000000 ) ) ;
#205 = CC_DESIGN_DATE_AND_TIME_ASSIGNMENT ( #235, #68, ( #151 ) ) ;
#206 = APPROVAL_ROLE ( '' ) ;
#207 = DIRECTION ( 'NONE',  ( 3.491481338843133355E-15, -1.217917285207545432E-16, 1.000000000000000000 ) ) ;
#208 = ORIENTED_EDGE ( 'NONE', *, *, #152, .F. ) ;
#209 = CC_DESIGN_PERSON_AND_ORGANIZATION_ASSIGNMENT ( #104, #185, ( #118 ) ) ;
#210 = DIRECTION ( 'NONE',  ( 4.275831445896959482E-31, 1.000000000000000000, 1.224646799147353454E-16 ) ) ;
#211 = MANIFOLD_SOLID_BREP ( 'Corps-Déplacer/Copier1[2]', #1 ) ;
#212 = CARTESIAN_POINT ( 'NONE',  ( 3.631140592396858689E-13, 8.999999999999987566, 104.0000000000000000 ) ) ;
#213 = ORIENTED_EDGE ( 'NONE', *, *, #154, .F. ) ;
#214 = PERSON_AND_ORGANIZATION ( #115, #2 ) ;
#215 = EDGE_CURVE ( 'NONE', #274, #19, #186, .T. ) ;
#216 = ORIENTED_EDGE ( 'NONE', *, *, #27, .F. ) ;
#217 = CARTESIAN_POINT ( 'NONE',  ( 1.396592535537253342E-13, 9.999999999999994671, 40.00000000000000000 ) ) ;
#218 = CARTESIAN_POINT ( 'NONE',  ( 2.508655625264312917E-13, -10.00000000000001421, 103.0000000000000000 ) ) ;
#219 = LINE ( 'NONE', #357, #77 ) ;
#220 = AXIS2_PLACEMENT_3D ( 'NONE', #363, #221, #338 ) ;
#221 = DIRECTION ( 'NONE',  ( -3.491481338843133355E-15, 1.224646799147353454E-16, -1.000000000000000000 ) ) ;
#222 = CC_DESIGN_PERSON_AND_ORGANIZATION_ASSIGNMENT ( #11, #343, ( #85 ) ) ;
#223 = PERSON_AND_ORGANIZATION ( #115, #2 ) ;
#224 = FACE_OUTER_BOUND ( 'NONE', #265, .T. ) ;
#225 = DIRECTION ( 'NONE',  ( 3.491481338843133355E-15, -1.217917285207545432E-16, 1.000000000000000000 ) ) ;
#226 = EDGE_CURVE ( 'NONE', #159, #303, #195, .T. ) ;
#227 = CIRCLE ( 'NONE', #323, 9.799999999999998934 ) ;
#228 = CONICAL_SURFACE ( 'NONE', #346, 10.00000000000000000, 0.7853981633974479459 ) ;
#229 = ORIENTED_EDGE ( 'NONE', *, *, #132, .F. ) ;
#230 = EDGE_CURVE ( 'NONE', #187, #307, #313, .T. ) ;
#231 = APPROVAL_STATUS ( 'not_yet_approved' ) ;
#232 = EDGE_CURVE ( 'NONE', #303, #78, #315, .T. ) ;
#233 = LOCAL_TIME ( 13, 57, 12.00000000000000000, #353 ) ;
#234 = DIRECTION ( 'NONE',  ( 3.491481338843133355E-15, -1.217917285207545432E-16, 1.000000000000000000 ) ) ;
#235 = DATE_AND_TIME ( #202, #16 ) ;
#236 = CARTESIAN_POINT ( 'NONE',  ( 1.224646799147348918E-15, -10.00000000000000000, -1.224646799147357595E-15 ) ) ;
#237 = EDGE_CURVE ( 'NONE', #295, #126, #318, .T. ) ;
#238 = PLANE ( 'NONE',  #22 ) ;
#239 = ORIENTED_EDGE ( 'NONE', *, *, #230, .T. ) ;
#240 = ORIENTED_EDGE ( 'NONE', *, *, #62, .F. ) ;
#241 = DIRECTION ( 'NONE',  ( 0.000000000000000000, 1.000000000000000000, 0.000000000000000000 ) ) ;
#242 = ORIENTED_EDGE ( 'NONE', *, *, #215, .T. ) ;
#243 = CARTESIAN_POINT ( 'NONE',  ( 0.000000000000000000, 0.000000000000000000, 0.000000000000000000 ) ) ;
#244 = ORIENTED_EDGE ( 'NONE', *, *, #95, .T. ) ;
#245 = DIRECTION ( 'NONE',  ( -4.237045877651918877E-31, -1.000000000000000000, -1.219727444046192488E-16 ) ) ;
#246 = PRODUCT_DEFINITION_SHAPE ( 'NONE', 'NONE',  #151 ) ;
#247 = ORIENTED_EDGE ( 'NONE', *, *, #95, .F. ) ;
#248 = DIRECTION ( 'NONE',  ( 0.000000000000000000, 1.000000000000000000, 0.000000000000000000 ) ) ;
#249 = CARTESIAN_POINT ( 'NONE',  ( 4.275831445896958957E-30, 10.00000000000000000, 1.224646799147353454E-15 ) ) ;
#250 = EDGE_LOOP ( 'NONE', ( #164, #175 ) ) ;
#251 = ADVANCED_FACE ( 'NONE', ( #348 ), #40, .F. ) ;
#252 = CARTESIAN_POINT ( 'NONE',  ( 3.596225779008426977E-13, -1.261386203121773919E-14, 103.0000000000000000 ) ) ;
#253 = AXIS2_PLACEMENT_3D ( 'NONE', #314, #225, #91 ) ;
#254 = AXIS2_PLACEMENT_3D ( 'NONE', #296, #98, #269 ) ;
#255 = CYLINDRICAL_SURFACE ( 'NONE', #200, 10.00000000000000000 ) ;
#256 = ADVANCED_FACE ( 'NONE', ( #292 ), #238, .F. ) ;
#257 = LINE ( 'NONE', #249, #45 ) ;
#258 = COORDINATED_UNIVERSAL_TIME_OFFSET ( 1, 0, .AHEAD. ) ;
#259 = ADVANCED_FACE ( 'NONE', ( #163 ), #327, .T. ) ;
#260 = DIRECTION ( 'NONE',  ( -3.491481338843133355E-15, 1.224646799147353454E-16, -1.000000000000000000 ) ) ;
#261 = ADVANCED_FACE ( 'NONE', ( #50 ), #61, .T. ) ;
#262 = DIRECTION ( 'NONE',  ( -3.491481338843133355E-15, 1.224646799147353454E-16, -1.000000000000000000 ) ) ;
#263 = PERSON_AND_ORGANIZATION_ROLE ( 'creator' ) ;
#264 = DIRECTION ( 'NONE',  ( -3.491481338843133355E-15, 1.224646799147353454E-16, -1.000000000000000000 ) ) ;
#265 = EDGE_LOOP ( 'NONE', ( #229, #301, #138, #49 ) ) ;
#266 = ADVANCED_BREP_SHAPE_REPRESENTATION ( '367637', ( #340, #211, #297 ), #281 ) ;
#267 = ORIENTED_EDGE ( 'NONE', *, *, #237, .F. ) ;
#268 = CIRCLE ( 'NONE', #54, 10.00000000000000000 ) ;
#269 = DIRECTION ( 'NONE',  ( 0.000000000000000000, 1.000000000000000000, 0.000000000000000000 ) ) ;
#270 = VERTEX_POINT ( 'NONE', #155 ) ;
#271 = DIRECTION ( 'NONE',  ( 3.491481338843133355E-15, -1.217917285207545432E-16, 1.000000000000000000 ) ) ;
#272 = ORIENTED_EDGE ( 'NONE', *, *, #132, .T. ) ;
#273 = MECHANICAL_CONTEXT ( 'NONE', #25, 'mechanical' ) ;
#274 = VERTEX_POINT ( 'NONE', #217 ) ;
#275 = SECURITY_CLASSIFICATION ( '', '', #59 ) ;
#276 = ORIENTED_EDGE ( 'NONE', *, *, #158, .F. ) ;
#277 =( LENGTH_UNIT ( ) NAMED_UNIT ( * ) SI_UNIT ( .MILLI., .METRE. ) );
#278 = DIRECTION ( 'NONE',  ( -3.491481338843133355E-15, 1.224646799147353454E-16, -1.000000000000000000 ) ) ;
#279 = CARTESIAN_POINT ( 'NONE',  ( -8.429214319490162372E-30, -9.799999999999998934, -2.414222933318926639E-15 ) ) ;
#280 = CARTESIAN_POINT ( 'NONE',  ( 1.396592535537253342E-13, -4.898587196589413815E-15, 40.00000000000000000 ) ) ;
#281 =( GEOMETRIC_REPRESENTATION_CONTEXT ( 3 ) GLOBAL_UNCERTAINTY_ASSIGNED_CONTEXT ( ( #345 ) ) GLOBAL_UNIT_ASSIGNED_CONTEXT ( ( #277, #125, #308 ) ) REPRESENTATION_CONTEXT ( 'NONE', 'WORKASPACE' ) );
#282 = CC_DESIGN_PERSON_AND_ORGANIZATION_ASSIGNMENT ( #316, #263, ( #151 ) ) ;
#283 = ORIENTED_EDGE ( 'NONE', *, *, #152, .T. ) ;
#284 = ORIENTED_EDGE ( 'NONE', *, *, #319, .F. ) ;
#285 = EDGE_CURVE ( 'NONE', #270, #333, #268, .T. ) ;
#286 = LINE ( 'NONE', #236, #305 ) ;
#287 = PERSON_AND_ORGANIZATION ( #115, #2 ) ;
#288 = CC_DESIGN_APPROVAL ( #146, ( #151 ) ) ;
#289 = DIRECTION ( 'NONE',  ( -3.491481338843133355E-15, 1.224646799147353454E-16, -1.000000000000000000 ) ) ;
#290 = CIRCLE ( 'NONE', #174, 10.00000000000000000 ) ;
#291 = ADVANCED_FACE ( 'NONE', ( #18 ), #336, .T. ) ;
#292 = FACE_OUTER_BOUND ( 'NONE', #17, .T. ) ;
#293 = APPROVAL_DATE_TIME ( #320, #356 ) ;
#294 = DIRECTION ( 'NONE',  ( -3.491481338843133355E-15, 1.224646799147353454E-16, -1.000000000000000000 ) ) ;
#295 = VERTEX_POINT ( 'NONE', #279 ) ;
#296 = CARTESIAN_POINT ( 'NONE',  ( 1.396592535537253342E-13, -4.898587196589413815E-15, 40.00000000000000000 ) ) ;
#297 = AXIS2_PLACEMENT_3D ( 'NONE', #243, #57, #79 ) ;
#298 = ORIENTED_EDGE ( 'NONE', *, *, #232, .F. ) ;
#299 = AXIS2_PLACEMENT_3D ( 'NONE', #280, #5, #29 ) ;
#300 = APPROVAL_PERSON_ORGANIZATION ( #72, #80, #206 ) ;
#301 = ORIENTED_EDGE ( 'NONE', *, *, #154, .T. ) ;
#302 = APPLICATION_PROTOCOL_DEFINITION ( 'international standard', 'config_control_design', 1994, #25 ) ;
#303 = VERTEX_POINT ( 'NONE', #212 ) ;
#304 = COORDINATED_UNIVERSAL_TIME_OFFSET ( 1, 0, .AHEAD. ) ;
#305 = VECTOR ( 'NONE', #289, 1000.000000000000000 ) ;
#306 = DIRECTION ( 'NONE',  ( 3.491481338843133355E-15, -1.217917285207545432E-16, 1.000000000000000000 ) ) ;
#307 = VERTEX_POINT ( 'NONE', #128 ) ;
#308 =( NAMED_UNIT ( * ) SI_UNIT ( $, .STERADIAN. ) SOLID_ANGLE_UNIT ( ) );
#309 = CARTESIAN_POINT ( 'NONE',  ( 6.982962677686204588E-16, -10.00000000000000000, 0.1999999999999982070 ) ) ;
#310 = DIRECTION ( 'NONE',  ( 2.555445736705815979E-15, 0.7071067811865471286, 0.7071067811865479058 ) ) ;
#311 = DATE_AND_TIME ( #141, #28 ) ;
#312 = CIRCLE ( 'NONE', #65, 10.00000000000000000 ) ;
#313 = CIRCLE ( 'NONE', #254, 10.00000000000000000 ) ;
#314 = CARTESIAN_POINT ( 'NONE',  ( 6.982962677686246989E-16, -2.435834570415083839E-17, 0.1999999999999994282 ) ) ;
#315 = LINE ( 'NONE', #113, #107 ) ;
#316 = PERSON_AND_ORGANIZATION ( #115, #2 ) ;
#317 = APPROVAL_DATE_TIME ( #38, #80 ) ;
#318 = CIRCLE ( 'NONE', #201, 9.799999999999998934 ) ;
#319 = EDGE_CURVE ( 'NONE', #159, #74, #165, .T. ) ;
#320 = DATE_AND_TIME ( #199, #192 ) ;
#321 = DIRECTION ( 'NONE',  ( -4.252335473556634944E-31, -1.000000000000000000, -1.217917285207545432E-16 ) ) ;
#322 = PLANE ( 'NONE',  #31 ) ;
#323 = AXIS2_PLACEMENT_3D ( 'NONE', #176, #42, #321 ) ;
#324 = CARTESIAN_POINT ( 'NONE',  ( 3.625317330294542294E-13, -9.000000000000010658, 104.0000000000000000 ) ) ;
#325 = CARTESIAN_POINT ( 'NONE',  ( 3.631140592396858689E-13, -1.273632671113247592E-14, 104.0000000000000000 ) ) ;
#326 = ORIENTED_EDGE ( 'NONE', *, *, #27, .T. ) ;
#327 = PLANE ( 'NONE',  #66 ) ;
#328 = ORIENTED_EDGE ( 'NONE', *, *, #145, .T. ) ;
#329 = AXIS2_PLACEMENT_3D ( 'NONE', #112, #84, #162 ) ;
#330 = AXIS2_PLACEMENT_3D ( 'NONE', #197, #207, #69 ) ;
#331 = CARTESIAN_POINT ( 'NONE',  ( 0.000000000000000000, 0.000000000000000000, 0.000000000000000000 ) ) ;
#332 = CC_DESIGN_PERSON_AND_ORGANIZATION_ASSIGNMENT ( #287, #109, ( #275 ) ) ;
#333 = VERTEX_POINT ( 'NONE', #87 ) ;
#334 = APPROVAL_STATUS ( 'not_yet_approved' ) ;
#335 = EDGE_LOOP ( 'NONE', ( #284, #181, #177, #216 ) ) ;
#336 = CYLINDRICAL_SURFACE ( 'NONE', #10, 10.00000000000000000 ) ;
#337 = DIRECTION ( 'NONE',  ( -3.491481338843133355E-15, 1.224646799147353454E-16, -1.000000000000000000 ) ) ;
#338 = DIRECTION ( 'NONE',  ( 0.000000000000000000, 1.000000000000000000, 0.000000000000000000 ) ) ;
#339 = CYLINDRICAL_SURFACE ( 'NONE', #329, 10.00000000000000000 ) ;
#340 = MANIFOLD_SOLID_BREP ( 'Corps-Déplacer/Copier1[1]', #194 ) ;
#341 = CARTESIAN_POINT ( 'NONE',  ( 3.631140592396858689E-13, -1.273632671113247592E-14, 104.0000000000000000 ) ) ;
#342 = CYLINDRICAL_SURFACE ( 'NONE', #9, 10.00000000000000000 ) ;
#343 = PERSON_AND_ORGANIZATION_ROLE ( 'design_supplier' ) ;
#344 = EDGE_CURVE ( 'NONE', #307, #270, #219, .T. ) ;
#345 = UNCERTAINTY_MEASURE_WITH_UNIT (LENGTH_MEASURE( 1.000000000000000082E-05 ), #277, 'distance_accuracy_value', 'NONE');
#346 = AXIS2_PLACEMENT_3D ( 'NONE', #131, #271, #3 ) ;
#347 = APPROVAL_PERSON_ORGANIZATION ( #171, #356, #13 ) ;
#348 = FACE_OUTER_BOUND ( 'NONE', #90, .T. ) ;
#349 = CARTESIAN_POINT ( 'NONE',  ( 4.275831445896958957E-30, 10.00000000000000000, 1.224646799147353454E-15 ) ) ;
#350 = CARTESIAN_POINT ( 'NONE',  ( 1.396592535537253342E-13, 7.498798913309283660E-32, 40.00000000000000000 ) ) ;
#351 = LINE ( 'NONE', #349, #173 ) ;
#352 = ORIENTED_EDGE ( 'NONE', *, *, #215, .F. ) ;
#353 = COORDINATED_UNIVERSAL_TIME_OFFSET ( 1, 0, .AHEAD. ) ;
#354 = CARTESIAN_POINT ( 'NONE',  ( 1.396592535537253342E-13, 7.498798913309283660E-32, 40.00000000000000000 ) ) ;
#355 = ORIENTED_EDGE ( 'NONE', *, *, #285, .T. ) ;
#356 = APPROVAL ( #231, 'UNSPECIFIED' ) ;
#357 = CARTESIAN_POINT ( 'NONE',  ( 1.224646799147348918E-15, -10.00000000000000000, -1.224646799147357595E-15 ) ) ;
#358 = ADVANCED_FACE ( 'NONE', ( #55 ), #228, .T. ) ;
#359 = DIRECTION ( 'NONE',  ( -3.491481338843133355E-15, 1.224646799147353454E-16, -1.000000000000000000 ) ) ;
#360 = ORIENTED_EDGE ( 'NONE', *, *, #285, .F. ) ;
#361 = DIRECTION ( 'NONE',  ( -3.491481338843133355E-15, 1.224646799147353454E-16, -1.000000000000000000 ) ) ;
#362 = CARTESIAN_POINT ( 'NONE',  ( 3.608472246999900492E-13, -10.00000000000001243, 103.0000000000000000 ) ) ;
#363 = CARTESIAN_POINT ( 'NONE',  ( 3.596225779008426977E-13, -1.261386203121773919E-14, 103.0000000000000000 ) ) ;
ENDSEC;
END-ISO-10303-21;
