ISO-10303-21;
HEADER;
FILE_DESCRIPTION (( 'STEP AP203' ),
    '1' );
FILE_NAME ('367636.step',
    '2023-03-31T11:57:12',
    ( '' ),
    ( '' ),
    'SwSTEP 2.0',
    'SolidWorks 2022',
    '' );
FILE_SCHEMA (( 'CONFIG_CONTROL_DESIGN' ));
ENDSEC;

DATA;
#1 = DIRECTION ( 'NONE',  ( 1.000000000000000000, 0.000000000000000000, 0.000000000000000000 ) ) ;
#2 = EDGE_CURVE ( 'NONE', #240, #21, #53, .T. ) ;
#3 = DIRECTION ( 'NONE',  ( 2.555445736705807696E-15, 0.7071067811865495711, 0.7071067811865454633 ) ) ;
#4 = VERTEX_POINT ( 'NONE', #198 ) ;
#5 = AXIS2_PLACEMENT_3D ( 'NONE', #100, #349, #36 ) ;
#6 = LINE ( 'NONE', #254, #43 ) ;
#7 = AXIS2_PLACEMENT_3D ( 'NONE', #275, #51, #217 ) ;
#8 = PERSON_AND_ORGANIZATION_ROLE ( 'design_supplier' ) ;
#9 = COORDINATED_UNIVERSAL_TIME_OFFSET ( 1, 0, .AHEAD. ) ;
#10 = ADVANCED_FACE ( 'NONE', ( #225 ), #252, .F. ) ;
#11 = CIRCLE ( 'NONE', #28, 4.500000000000000888 ) ;
#12 = CALENDAR_DATE ( 2023, 31, 3 ) ;
#13 = VERTEX_POINT ( 'NONE', #335 ) ;
#14 = LOCAL_TIME ( 13, 57, 12.00000000000000000, #258 ) ;
#15 = APPROVAL_STATUS ( 'not_yet_approved' ) ;
#16 = AXIS2_PLACEMENT_3D ( 'NONE', #110, #336, #29 ) ;
#17 = ORIENTED_EDGE ( 'NONE', *, *, #309, .F. ) ;
#18 = CARTESIAN_POINT ( 'NONE',  ( 7.681258945454893382E-14, 4.999999999999997335, 22.00000000000000000 ) ) ;
#19 = EDGE_CURVE ( 'NONE', #185, #257, #63, .T. ) ;
#20 = AXIS2_PLACEMENT_3D ( 'NONE', #112, #143, #88 ) ;
#21 = VERTEX_POINT ( 'NONE', #139 ) ;
#22 = EDGE_CURVE ( 'NONE', #299, #13, #6, .T. ) ;
#23 = DIRECTION ( 'NONE',  ( -3.491481338843133355E-15, 1.224646799147353207E-16, -1.000000000000000000 ) ) ;
#24 = CARTESIAN_POINT ( 'NONE',  ( 6.982962677686251919E-16, -2.435834570415085688E-17, 0.1999999999999995670 ) ) ;
#25 = DIRECTION ( 'NONE',  ( -3.491481338843133355E-15, 1.224646799147353207E-16, -1.000000000000000000 ) ) ;
#26 = DIRECTION ( 'NONE',  ( -3.491481338843133355E-15, 1.224646799147353207E-16, -1.000000000000000000 ) ) ;
#27 = DIRECTION ( 'NONE',  ( 0.000000000000000000, 0.000000000000000000, 1.000000000000000000 ) ) ;
#28 = AXIS2_PLACEMENT_3D ( 'NONE', #363, #260, #61 ) ;
#29 = DIRECTION ( 'NONE',  ( -4.237045877651918877E-31, -1.000000000000000000, -1.192622389734054877E-16 ) ) ;
#30 = CALENDAR_DATE ( 2023, 31, 3 ) ;
#31 = ORIENTED_EDGE ( 'NONE', *, *, #293, .T. ) ;
#32 = PERSON_AND_ORGANIZATION ( #177, #122 ) ;
#33 = FACE_OUTER_BOUND ( 'NONE', #169, .T. ) ;
#34 = PRODUCT_RELATED_PRODUCT_CATEGORY ( 'detail', '', ( #188 ) ) ;
#35 = VECTOR ( 'NONE', #25, 1000.000000000000000 ) ;
#36 = DIRECTION ( 'NONE',  ( 4.275831445896958607E-31, 1.000000000000000000, 1.224646799147353207E-16 ) ) ;
#37 = PERSON_AND_ORGANIZATION_ROLE ( 'creator' ) ;
#38 = APPROVAL_STATUS ( 'not_yet_approved' ) ;
#39 = AXIS2_PLACEMENT_3D ( 'NONE', #295, #102, #238 ) ;
#40 = CARTESIAN_POINT ( 'NONE',  ( 2.496409157272839907E-13, -8.756224613903572559E-15, 71.49999999999998579 ) ) ;
#41 = CARTESIAN_POINT ( 'NONE',  ( 7.681258945454893382E-14, -2.694222958124176809E-15, 22.00000000000000000 ) ) ;
#42 = EDGE_CURVE ( 'NONE', #299, #213, #11, .T. ) ;
#43 = VECTOR ( 'NONE', #338, 999.9999999999998863 ) ;
#44 = EDGE_LOOP ( 'NONE', ( #17, #355, #273, #175 ) ) ;
#45 = LINE ( 'NONE', #79, #347 ) ;
#46 = EDGE_LOOP ( 'NONE', ( #98, #103 ) ) ;
#47 = CARTESIAN_POINT ( 'NONE',  ( 3.875544286115878655E-14, 5.000000000000000000, 0.2000000000000001776 ) ) ;
#48 = ORIENTED_EDGE ( 'NONE', *, *, #22, .T. ) ;
#49 = AXIS2_PLACEMENT_3D ( 'NONE', #40, #344, #148 ) ;
#50 = CC_DESIGN_DATE_AND_TIME_ASSIGNMENT ( #235, #206, ( #253 ) ) ;
#51 = DIRECTION ( 'NONE',  ( 3.491481338843133355E-15, -1.224646799147353207E-16, 1.000000000000000000 ) ) ;
#52 = LOCAL_TIME ( 13, 57, 12.00000000000000000, #9 ) ;
#53 = LINE ( 'NONE', #91, #255 ) ;
#54 = CARTESIAN_POINT ( 'NONE',  ( 2.496409157272839907E-13, -8.756224613903572559E-15, 71.49999999999998579 ) ) ;
#55 = CARTESIAN_POINT ( 'NONE',  ( 2.502532391268576917E-13, -5.000000000000009770, 71.49999999999998579 ) ) ;
#56 = DIRECTION ( 'NONE',  ( 4.275831445896958607E-31, 1.000000000000000000, 1.224646799147353207E-16 ) ) ;
#57 = FACE_OUTER_BOUND ( 'NONE', #271, .T. ) ;
#58 = PERSON_AND_ORGANIZATION_ROLE ( 'classification_officer' ) ;
#59 = CIRCLE ( 'NONE', #89, 4.500000000000000888 ) ;
#60 = AXIS2_PLACEMENT_3D ( 'NONE', #234, #94, #201 ) ;
#61 = DIRECTION ( 'NONE',  ( 0.000000000000000000, 1.000000000000000000, 0.000000000000000000 ) ) ;
#62 = CC_DESIGN_DATE_AND_TIME_ASSIGNMENT ( #99, #155, ( #227 ) ) ;
#63 = LINE ( 'NONE', #111, #70 ) ;
#64 = EDGE_CURVE ( 'NONE', #213, #299, #59, .T. ) ;
#65 = PERSON_AND_ORGANIZATION ( #177, #122 ) ;
#66 = ADVANCED_FACE ( 'NONE', ( #33 ), #195, .T. ) ;
#67 = PERSON_AND_ORGANIZATION ( #177, #122 ) ;
#68 = DIRECTION ( 'NONE',  ( -3.491481338843133355E-15, 1.224646799147353207E-16, -1.000000000000000000 ) ) ;
#69 = CIRCLE ( 'NONE', #84, 5.000000000000000000 ) ;
#70 = VECTOR ( 'NONE', #3, 1000.000000000000000 ) ;
#71 = CC_DESIGN_APPROVAL ( #263, ( #292 ) ) ;
#72 = CARTESIAN_POINT ( 'NONE',  ( 7.681258945454893382E-14, -2.694222958124176809E-15, 22.00000000000000000 ) ) ;
#73 = FACE_OUTER_BOUND ( 'NONE', #107, .T. ) ;
#74 = ORIENTED_EDGE ( 'NONE', *, *, #22, .F. ) ;
#75 = ORIENTED_EDGE ( 'NONE', *, *, #186, .F. ) ;
#76 = ADVANCED_FACE ( 'NONE', ( #116 ), #171, .T. ) ;
#77 = VERTEX_POINT ( 'NONE', #341 ) ;
#78 = AXIS2_PLACEMENT_3D ( 'NONE', #337, #26, #85 ) ;
#79 = CARTESIAN_POINT ( 'NONE',  ( 2.137915722948479128E-30, 5.000000000000000000, 6.123233995736766282E-16 ) ) ;
#80 = ORIENTED_EDGE ( 'NONE', *, *, #19, .F. ) ;
#81 = ORIENTED_EDGE ( 'NONE', *, *, #186, .T. ) ;
#82 = AXIS2_PLACEMENT_3D ( 'NONE', #331, #27, #1 ) ;
#83 = CARTESIAN_POINT ( 'NONE',  ( 0.000000000000000000, 0.000000000000000000, 0.000000000000000000 ) ) ;
#84 = AXIS2_PLACEMENT_3D ( 'NONE', #354, #121, #236 ) ;
#85 = DIRECTION ( 'NONE',  ( 4.275831445896958607E-31, 1.000000000000000000, 1.224646799147353207E-16 ) ) ;
#86 = DIRECTION ( 'NONE',  ( -3.491481338843133355E-15, 1.224646799147353207E-16, -1.000000000000000000 ) ) ;
#87 = CARTESIAN_POINT ( 'NONE',  ( 0.000000000000000000, 0.000000000000000000, 0.000000000000000000 ) ) ;
#88 = DIRECTION ( 'NONE',  ( 4.275831445896958607E-31, 1.000000000000000000, 1.224646799147353207E-16 ) ) ;
#89 = AXIS2_PLACEMENT_3D ( 'NONE', #224, #285, #229 ) ;
#90 = APPROVAL_PERSON_ORGANIZATION ( #329, #159, #132 ) ;
#91 = CARTESIAN_POINT ( 'NONE',  ( 6.123233995736746561E-16, -5.000000000000000888, -6.123233995736787976E-16 ) ) ;
#92 = CARTESIAN_POINT ( 'NONE',  ( 7.681258945454893382E-14, 3.749399456654640188E-32, 22.00000000000000000 ) ) ;
#93 = CLOSED_SHELL ( 'NONE', ( #135, #66, #76, #124, #137, #233 ) ) ;
#94 = DIRECTION ( 'NONE',  ( -3.491481338843133355E-15, 1.224646799147353207E-16, -1.000000000000000000 ) ) ;
#95 = APPROVAL ( #38, 'UNSPECIFIED' ) ;
#96 = AXIS2_PLACEMENT_3D ( 'NONE', #72, #68, #153 ) ;
#97 = CC_DESIGN_APPROVAL ( #95, ( #227 ) ) ;
#98 = ORIENTED_EDGE ( 'NONE', *, *, #178, .F. ) ;
#99 = DATE_AND_TIME ( #30, #323 ) ;
#100 = CARTESIAN_POINT ( 'NONE',  ( 0.000000000000000000, 0.000000000000000000, 0.000000000000000000 ) ) ;
#101 = EDGE_LOOP ( 'NONE', ( #296, #279 ) ) ;
#102 = DIRECTION ( 'NONE',  ( -3.491481338843133355E-15, 1.224646799147353207E-16, -1.000000000000000000 ) ) ;
#103 = ORIENTED_EDGE ( 'NONE', *, *, #348, .F. ) ;
#104 = EDGE_CURVE ( 'NONE', #213, #240, #306, .T. ) ;
#105 = AXIS2_PLACEMENT_3D ( 'NONE', #180, #126, #207 ) ;
#106 = MECHANICAL_CONTEXT ( 'NONE', #248, 'mechanical' ) ;
#107 = EDGE_LOOP ( 'NONE', ( #158, #174, #328, #154 ) ) ;
#108 = CARTESIAN_POINT ( 'NONE',  ( -2.041121027307184423E-30, 7.119948065315121647E-32, -5.846002968996216498E-16 ) ) ;
#109 = DIRECTION ( 'NONE',  ( 3.491481338843133355E-15, -1.217917285207545432E-16, 1.000000000000000000 ) ) ;
#110 = CARTESIAN_POINT ( 'NONE',  ( 6.982962677686251919E-16, -2.435834570415085688E-17, 0.1999999999999995670 ) ) ;
#111 = CARTESIAN_POINT ( 'NONE',  ( 1.310619667342303990E-15, 5.000000000000000000, 0.2000000000000001776 ) ) ;
#112 = CARTESIAN_POINT ( 'NONE',  ( 0.000000000000000000, 0.000000000000000000, 0.000000000000000000 ) ) ;
#113 = APPROVAL_DATE_TIME ( #223, #263 ) ;
#114 = ORIENTED_EDGE ( 'NONE', *, *, #194, .T. ) ;
#115 = CC_DESIGN_PERSON_AND_ORGANIZATION_ASSIGNMENT ( #32, #265, ( #253 ) ) ;
#116 = FACE_OUTER_BOUND ( 'NONE', #44, .T. ) ;
#117 = CARTESIAN_POINT ( 'NONE',  ( 3.936776626073245598E-14, -5.000000000000000000, 0.1999999999999989841 ) ) ;
#118 = SECURITY_CLASSIFICATION_LEVEL ( 'unclassified' ) ;
#119 = CC_DESIGN_PERSON_AND_ORGANIZATION_ASSIGNMENT ( #318, #58, ( #227 ) ) ;
#120 = FACE_OUTER_BOUND ( 'NONE', #208, .T. ) ;
#121 = DIRECTION ( 'NONE',  ( -3.491481338843133355E-15, 1.224646799147353207E-16, -1.000000000000000000 ) ) ;
#122 = ORGANIZATION ( 'UNSPECIFIED', 'UNSPECIFIED', '' ) ;
#123 = ORIENTED_EDGE ( 'NONE', *, *, #194, .F. ) ;
#124 = ADVANCED_FACE ( 'NONE', ( #283 ), #222, .T. ) ;
#125 = CIRCLE ( 'NONE', #162, 5.000000000000000000 ) ;
#126 = DIRECTION ( 'NONE',  ( 3.491481338843133355E-15, -1.217917285207545432E-16, 1.000000000000000000 ) ) ;
#127 = EDGE_LOOP ( 'NONE', ( #123, #244 ) ) ;
#128 = DIRECTION ( 'NONE',  ( -3.491481338843133355E-15, 1.224646799147353207E-16, -1.000000000000000000 ) ) ;
#129 = EDGE_LOOP ( 'NONE', ( #282, #197 ) ) ;
#130 = VERTEX_POINT ( 'NONE', #280 ) ;
#131 = APPROVAL_PERSON_ORGANIZATION ( #67, #263, #353 ) ;
#132 = APPROVAL_ROLE ( '' ) ;
#133 = ORIENTED_EDGE ( 'NONE', *, *, #2, .F. ) ;
#134 = LINE ( 'NONE', #251, #350 ) ;
#135 = ADVANCED_FACE ( 'NONE', ( #57 ), #214, .T. ) ;
#136 = DIRECTION ( 'NONE',  ( 3.491481338843133355E-15, -1.217917285207545432E-16, 1.000000000000000000 ) ) ;
#137 = ADVANCED_FACE ( 'NONE', ( #361 ), #278, .T. ) ;
#138 =( NAMED_UNIT ( * ) SI_UNIT ( $, .STERADIAN. ) SOLID_ANGLE_UNIT ( ) );
#139 = CARTESIAN_POINT ( 'NONE',  ( 1.638390759904901506E-13, -5.000000000000002665, 22.00000000000000000 ) ) ;
#140 = COORDINATED_UNIVERSAL_TIME_OFFSET ( 1, 0, .AHEAD. ) ;
#141 = DIRECTION ( 'NONE',  ( 2.468850131082257455E-15, -0.7071067811865497932, 0.7071067811865452413 ) ) ;
#142 = DIRECTION ( 'NONE',  ( 4.275831445896958607E-31, 1.000000000000000000, 1.224646799147353207E-16 ) ) ;
#143 = DIRECTION ( 'NONE',  ( -3.491481338843133355E-15, 1.224646799147353207E-16, -1.000000000000000000 ) ) ;
#144 = DIRECTION ( 'NONE',  ( -3.491481338843133355E-15, 1.224646799147353207E-16, -1.000000000000000000 ) ) ;
#145 = CIRCLE ( 'NONE', #152, 5.000000000000000000 ) ;
#146 = CALENDAR_DATE ( 2023, 31, 3 ) ;
#147 = AXIS2_PLACEMENT_3D ( 'NONE', #24, #136, #250 ) ;
#148 = DIRECTION ( 'NONE',  ( 0.000000000000000000, 1.000000000000000000, 0.000000000000000000 ) ) ;
#149 = PERSON_AND_ORGANIZATION ( #177, #122 ) ;
#150 = ADVANCED_FACE ( 'NONE', ( #120 ), #221, .T. ) ;
#151 = CC_DESIGN_PERSON_AND_ORGANIZATION_ASSIGNMENT ( #245, #303, ( #188 ) ) ;
#152 = AXIS2_PLACEMENT_3D ( 'NONE', #281, #215, #333 ) ;
#153 = DIRECTION ( 'NONE',  ( 0.000000000000000000, 1.000000000000000000, 0.000000000000000000 ) ) ;
#154 = ORIENTED_EDGE ( 'NONE', *, *, #293, .F. ) ;
#155 = DATE_TIME_ROLE ( 'classification_date' ) ;
#156 = EDGE_CURVE ( 'NONE', #130, #77, #69, .T. ) ;
#157 = ORIENTED_EDGE ( 'NONE', *, *, #104, .T. ) ;
#158 = ORIENTED_EDGE ( 'NONE', *, *, #231, .T. ) ;
#159 = APPROVAL ( #301, 'UNSPECIFIED' ) ;
#160 = ORIENTED_EDGE ( 'NONE', *, *, #231, .F. ) ;
#161 = COORDINATED_UNIVERSAL_TIME_OFFSET ( 1, 0, .AHEAD. ) ;
#162 = AXIS2_PLACEMENT_3D ( 'NONE', #346, #183, #294 ) ;
#163 = ORIENTED_EDGE ( 'NONE', *, *, #64, .T. ) ;
#164 = CIRCLE ( 'NONE', #39, 5.000000000000000000 ) ;
#165 = CARTESIAN_POINT ( 'NONE',  ( 2.513866563967056016E-13, 4.499999999999992006, 72.00000000000000000 ) ) ;
#166 = DIRECTION ( 'NONE',  ( -4.275831445896958607E-31, -1.000000000000000000, -1.224646799147353207E-16 ) ) ;
#167 = PRODUCT_DEFINITION_SHAPE ( 'NONE', 'NONE',  #253 ) ;
#168 =( NAMED_UNIT ( * ) PLANE_ANGLE_UNIT ( ) SI_UNIT ( $, .RADIAN. ) );
#169 = EDGE_LOOP ( 'NONE', ( #114, #302, #81, #249 ) ) ;
#170 = LINE ( 'NONE', #247, #35 ) ;
#171 = CYLINDRICAL_SURFACE ( 'NONE', #20, 5.000000000000000000 ) ;
#172 = COORDINATED_UNIVERSAL_TIME_OFFSET ( 1, 0, .AHEAD. ) ;
#173 = VECTOR ( 'NONE', #86, 1000.000000000000000 ) ;
#174 = ORIENTED_EDGE ( 'NONE', *, *, #2, .T. ) ;
#175 = ORIENTED_EDGE ( 'NONE', *, *, #274, .T. ) ;
#176 = CC_DESIGN_APPROVAL ( #159, ( #253 ) ) ;
#177 = PERSON ( 'UNSPECIFIED', 'UNSPECIFIED', 'UNSPECIFIED', ('UNSPECIFIED'), ('UNSPECIFIED'), ('UNSPECIFIED') ) ;
#178 = EDGE_CURVE ( 'NONE', #4, #185, #246, .T. ) ;
#179 = APPROVAL_DATE_TIME ( #205, #95 ) ;
#180 = CARTESIAN_POINT ( 'NONE',  ( -2.041121027307184423E-30, 7.119948065315121647E-32, -5.846002968996216498E-16 ) ) ;
#181 = AXIS2_PLACEMENT_3D ( 'NONE', #41, #203, #352 ) ;
#182 = EDGE_LOOP ( 'NONE', ( #359, #157, #160, #74 ) ) ;
#183 = DIRECTION ( 'NONE',  ( 3.491481338843133355E-15, -1.217917285207545432E-16, 1.000000000000000000 ) ) ;
#184 = APPLICATION_PROTOCOL_DEFINITION ( 'international standard', 'config_control_design', 1994, #248 ) ;
#185 = VERTEX_POINT ( 'NONE', #272 ) ;
#186 = EDGE_CURVE ( 'NONE', #211, #257, #125, .T. ) ;
#187 = ORIENTED_EDGE ( 'NONE', *, *, #325, .T. ) ;
#188 = PRODUCT ( '367636', '367636', '', ( #106 ) ) ;
#189 = PLANE ( 'NONE',  #7 ) ;
#190 = AXIS2_PLACEMENT_3D ( 'NONE', #108, #109, #193 ) ;
#191 = CC_DESIGN_PERSON_AND_ORGANIZATION_ASSIGNMENT ( #288, #37, ( #292 ) ) ;
#192 = LOCAL_TIME ( 13, 57, 12.00000000000000000, #140 ) ;
#193 = DIRECTION ( 'NONE',  ( -4.252335473556634944E-31, -1.000000000000000000, -1.217917285207545432E-16 ) ) ;
#194 = EDGE_CURVE ( 'NONE', #77, #130, #164, .T. ) ;
#195 = CYLINDRICAL_SURFACE ( 'NONE', #267, 5.000000000000000000 ) ;
#196 = DIRECTION ( 'NONE',  ( -3.491481338843133355E-15, 1.224646799147353207E-16, -1.000000000000000000 ) ) ;
#197 = ORIENTED_EDGE ( 'NONE', *, *, #64, .F. ) ;
#198 = CARTESIAN_POINT ( 'NONE',  ( -4.082242054614368845E-30, -4.799999999999998934, -1.169200593799243300E-15 ) ) ;
#199 = DIRECTION ( 'NONE',  ( 3.491481338843133355E-15, -1.224646799147353207E-16, 1.000000000000000000 ) ) ;
#200 = EDGE_CURVE ( 'NONE', #21, #270, #239, .T. ) ;
#201 = DIRECTION ( 'NONE',  ( 4.275831445896958607E-31, 1.000000000000000000, 1.224646799147353207E-16 ) ) ;
#202 = AXIS2_PLACEMENT_3D ( 'NONE', #297, #128, #243 ) ;
#203 = DIRECTION ( 'NONE',  ( -3.491481338843133355E-15, 1.224646799147353207E-16, -1.000000000000000000 ) ) ;
#204 = APPROVAL_PERSON_ORGANIZATION ( #65, #95, #319 ) ;
#205 = DATE_AND_TIME ( #12, #52 ) ;
#206 = DATE_TIME_ROLE ( 'creation_date' ) ;
#207 = DIRECTION ( 'NONE',  ( -4.252335473556634944E-31, -1.000000000000000000, -1.217917285207545432E-16 ) ) ;
#208 = EDGE_LOOP ( 'NONE', ( #276, #163, #48, #314 ) ) ;
#209 = CALENDAR_DATE ( 2023, 31, 3 ) ;
#210 = FACE_OUTER_BOUND ( 'NONE', #182, .T. ) ;
#211 = VERTEX_POINT ( 'NONE', #117 ) ;
#212 = DIRECTION ( 'NONE',  ( -3.491481338843133355E-15, 1.224646799147353207E-16, -1.000000000000000000 ) ) ;
#213 = VERTEX_POINT ( 'NONE', #315 ) ;
#214 = CONICAL_SURFACE ( 'NONE', #147, 5.000000000000000000, 0.7853981633974513876 ) ;
#215 = DIRECTION ( 'NONE',  ( 3.491481338843133355E-15, -1.217917285207545432E-16, 1.000000000000000000 ) ) ;
#216 = CLOSED_SHELL ( 'NONE', ( #230, #226, #256, #259, #150, #10 ) ) ;
#217 = DIRECTION ( 'NONE',  ( -4.275831445896958607E-31, -1.000000000000000000, -1.224646799147353207E-16 ) ) ;
#218 = ORIENTED_EDGE ( 'NONE', *, *, #19, .T. ) ;
#219 = CYLINDRICAL_SURFACE ( 'NONE', #289, 5.000000000000000888 ) ;
#220 = ORIENTED_EDGE ( 'NONE', *, *, #274, .F. ) ;
#221 = CONICAL_SURFACE ( 'NONE', #310, 5.000000000000000888, 0.7853981633974344012 ) ;
#222 = PLANE ( 'NONE',  #321 ) ;
#223 = DATE_AND_TIME ( #342, #192 ) ;
#224 = CARTESIAN_POINT ( 'NONE',  ( 2.513866563967056016E-13, -8.817456953860941711E-15, 72.00000000000000000 ) ) ;
#225 = FACE_OUTER_BOUND ( 'NONE', #129, .T. ) ;
#226 = ADVANCED_FACE ( 'NONE', ( #73 ), #291, .T. ) ;
#227 = SECURITY_CLASSIFICATION ( '', '', #118 ) ;
#228 = APPLICATION_CONTEXT ( 'configuration controlled 3d designs of mechanical parts and assemblies' ) ;
#229 = DIRECTION ( 'NONE',  ( 0.000000000000000000, 1.000000000000000000, 0.000000000000000000 ) ) ;
#230 = ADVANCED_FACE ( 'NONE', ( #210 ), #262, .T. ) ;
#231 = EDGE_CURVE ( 'NONE', #13, #240, #340, .T. ) ;
#232 = CC_DESIGN_PERSON_AND_ORGANIZATION_ASSIGNMENT ( #149, #8, ( #292 ) ) ;
#233 = ADVANCED_FACE ( 'NONE', ( #264 ), #322, .T. ) ;
#234 = CARTESIAN_POINT ( 'NONE',  ( -1.068957861474239564E-30, 3.749399456654644020E-32, -3.061616997868383141E-16 ) ) ;
#235 = DATE_AND_TIME ( #209, #14 ) ;
#236 = DIRECTION ( 'NONE',  ( 0.000000000000000000, 1.000000000000000000, 0.000000000000000000 ) ) ;
#237 =( GEOMETRIC_REPRESENTATION_CONTEXT ( 3 ) GLOBAL_UNCERTAINTY_ASSIGNED_CONTEXT ( ( #345 ) ) GLOBAL_UNIT_ASSIGNED_CONTEXT ( ( #362, #168, #138 ) ) REPRESENTATION_CONTEXT ( 'NONE', 'WORKASPACE' ) );
#238 = DIRECTION ( 'NONE',  ( 0.000000000000000000, 1.000000000000000000, 0.000000000000000000 ) ) ;
#239 = CIRCLE ( 'NONE', #181, 5.000000000000000000 ) ;
#240 = VERTEX_POINT ( 'NONE', #320 ) ;
#241 = EDGE_CURVE ( 'NONE', #270, #21, #261, .T. ) ;
#242 = ORIENTED_EDGE ( 'NONE', *, *, #343, .F. ) ;
#243 = DIRECTION ( 'NONE',  ( 0.000000000000000000, 1.000000000000000000, 0.000000000000000000 ) ) ;
#244 = ORIENTED_EDGE ( 'NONE', *, *, #156, .F. ) ;
#245 = PERSON_AND_ORGANIZATION ( #177, #122 ) ;
#246 = CIRCLE ( 'NONE', #105, 4.799999999999998934 ) ;
#247 = CARTESIAN_POINT ( 'NONE',  ( 2.137915722948479478E-30, 5.000000000000000888, 6.123233995736767268E-16 ) ) ;
#248 = APPLICATION_CONTEXT ( 'configuration controlled 3d designs of mechanical parts and assemblies' ) ;
#249 = ORIENTED_EDGE ( 'NONE', *, *, #298, .F. ) ;
#250 = DIRECTION ( 'NONE',  ( -4.237045877651918877E-31, -1.000000000000000000, -1.192622389734054877E-16 ) ) ;
#251 = CARTESIAN_POINT ( 'NONE',  ( 6.982962677686231212E-16, -5.000000000000000000, 0.1999999999999989841 ) ) ;
#252 = PLANE ( 'NONE',  #78 ) ;
#253 = PRODUCT_DEFINITION ( 'UNKNOWN', '', #292, #313 ) ;
#254 = CARTESIAN_POINT ( 'NONE',  ( 2.496409157272839907E-13, 4.999999999999992006, 71.49999999999998579 ) ) ;
#255 = VECTOR ( 'NONE', #144, 1000.000000000000000 ) ;
#256 = ADVANCED_FACE ( 'NONE', ( #269 ), #189, .F. ) ;
#257 = VERTEX_POINT ( 'NONE', #47 ) ;
#258 = COORDINATED_UNIVERSAL_TIME_OFFSET ( 1, 0, .AHEAD. ) ;
#259 = ADVANCED_FACE ( 'NONE', ( #300 ), #219, .T. ) ;
#260 = DIRECTION ( 'NONE',  ( -3.491481338843133355E-15, 1.224646799147353207E-16, -1.000000000000000000 ) ) ;
#261 = CIRCLE ( 'NONE', #96, 5.000000000000000000 ) ;
#262 = CONICAL_SURFACE ( 'NONE', #202, 5.000000000000000888, 0.7853981633974344012 ) ;
#263 = APPROVAL ( #15, 'UNSPECIFIED' ) ;
#264 = FACE_OUTER_BOUND ( 'NONE', #46, .T. ) ;
#265 = PERSON_AND_ORGANIZATION_ROLE ( 'creator' ) ;
#266 = ADVANCED_BREP_SHAPE_REPRESENTATION ( '367636', ( #316, #312, #82 ), #237 ) ;
#267 = AXIS2_PLACEMENT_3D ( 'NONE', #87, #196, #142 ) ;
#268 = CIRCLE ( 'NONE', #287, 5.000000000000000888 ) ;
#269 = FACE_OUTER_BOUND ( 'NONE', #101, .T. ) ;
#270 = VERTEX_POINT ( 'NONE', #18 ) ;
#271 = EDGE_LOOP ( 'NONE', ( #330, #218, #75, #242 ) ) ;
#272 = CARTESIAN_POINT ( 'NONE',  ( 9.492250654665188747E-16, 4.799999999999998934, -3.274080905458300950E-30 ) ) ;
#273 = ORIENTED_EDGE ( 'NONE', *, *, #298, .T. ) ;
#274 = EDGE_CURVE ( 'NONE', #257, #211, #145, .T. ) ;
#275 = CARTESIAN_POINT ( 'NONE',  ( 7.681258945454893382E-14, 3.749399456654640188E-32, 22.00000000000000000 ) ) ;
#276 = ORIENTED_EDGE ( 'NONE', *, *, #104, .F. ) ;
#277 = DIRECTION ( 'NONE',  ( -3.491481338843133355E-15, 1.224646799147353207E-16, -1.000000000000000000 ) ) ;
#278 = CONICAL_SURFACE ( 'NONE', #16, 5.000000000000000000, 0.7853981633974513876 ) ;
#279 = ORIENTED_EDGE ( 'NONE', *, *, #200, .T. ) ;
#280 = CARTESIAN_POINT ( 'NONE',  ( 3.936776626073243705E-14, -5.000000000000003553, 22.00000000000000000 ) ) ;
#281 = CARTESIAN_POINT ( 'NONE',  ( 6.982962677686251919E-16, -2.435834570415085688E-17, 0.1999999999999995670 ) ) ;
#282 = ORIENTED_EDGE ( 'NONE', *, *, #42, .F. ) ;
#283 = FACE_OUTER_BOUND ( 'NONE', #127, .T. ) ;
#284 = ORIENTED_EDGE ( 'NONE', *, *, #348, .T. ) ;
#285 = DIRECTION ( 'NONE',  ( -3.491481338843133355E-15, 1.224646799147353207E-16, -1.000000000000000000 ) ) ;
#286 = CARTESIAN_POINT ( 'NONE',  ( 2.496409157272839907E-13, -8.756224613903572559E-15, 71.49999999999998579 ) ) ;
#287 = AXIS2_PLACEMENT_3D ( 'NONE', #54, #23, #358 ) ;
#288 = PERSON_AND_ORGANIZATION ( #177, #122 ) ;
#289 = AXIS2_PLACEMENT_3D ( 'NONE', #83, #277, #56 ) ;
#290 = SHAPE_DEFINITION_REPRESENTATION ( #167, #266 ) ;
#291 = CYLINDRICAL_SURFACE ( 'NONE', #5, 5.000000000000000888 ) ;
#292 = PRODUCT_DEFINITION_FORMATION_WITH_SPECIFIED_SOURCE ( 'ANY', '', #188, .NOT_KNOWN. ) ;
#293 = EDGE_CURVE ( 'NONE', #13, #270, #170, .T. ) ;
#294 = DIRECTION ( 'NONE',  ( -4.237045877651918877E-31, -1.000000000000000000, -1.192622389734054877E-16 ) ) ;
#295 = CARTESIAN_POINT ( 'NONE',  ( 7.681258945454893382E-14, -2.694222958124176809E-15, 22.00000000000000000 ) ) ;
#296 = ORIENTED_EDGE ( 'NONE', *, *, #241, .T. ) ;
#297 = CARTESIAN_POINT ( 'NONE',  ( 2.496409157272839907E-13, -8.756224613903572559E-15, 71.49999999999998579 ) ) ;
#298 = EDGE_CURVE ( 'NONE', #77, #257, #45, .T. ) ;
#299 = VERTEX_POINT ( 'NONE', #165 ) ;
#300 = FACE_OUTER_BOUND ( 'NONE', #332, .T. ) ;
#301 = APPROVAL_STATUS ( 'not_yet_approved' ) ;
#302 = ORIENTED_EDGE ( 'NONE', *, *, #309, .T. ) ;
#303 = PERSON_AND_ORGANIZATION_ROLE ( 'design_owner' ) ;
#304 = CC_DESIGN_SECURITY_CLASSIFICATION ( #227, ( #292 ) ) ;
#305 = CARTESIAN_POINT ( 'NONE',  ( 6.123233995736744589E-16, -5.000000000000000000, -6.123233995736786990E-16 ) ) ;
#306 = LINE ( 'NONE', #55, #339 ) ;
#307 = DIRECTION ( 'NONE',  ( -2.382254525458751785E-15, -0.7071067811865375807, -0.7071067811865574537 ) ) ;
#308 = ORIENTED_EDGE ( 'NONE', *, *, #343, .T. ) ;
#309 = EDGE_CURVE ( 'NONE', #130, #211, #360, .T. ) ;
#310 = AXIS2_PLACEMENT_3D ( 'NONE', #286, #327, #324 ) ;
#311 = APPROVAL_DATE_TIME ( #317, #159 ) ;
#312 = MANIFOLD_SOLID_BREP ( 'Corps-Déplacer/Copier1[2]', #93 ) ;
#313 = DESIGN_CONTEXT ( 'detailed design', #228, 'design' ) ;
#314 = ORIENTED_EDGE ( 'NONE', *, *, #325, .F. ) ;
#315 = CARTESIAN_POINT ( 'NONE',  ( 2.510954932915897566E-13, -4.500000000000008882, 72.00000000000000000 ) ) ;
#316 = MANIFOLD_SOLID_BREP ( 'Corps-Déplacer/Copier1[1]', #216 ) ;
#317 = DATE_AND_TIME ( #146, #334 ) ;
#318 = PERSON_AND_ORGANIZATION ( #177, #122 ) ;
#319 = APPROVAL_ROLE ( '' ) ;
#320 = CARTESIAN_POINT ( 'NONE',  ( 1.638390759904901001E-13, -5.000000000000009770, 71.49999999999998579 ) ) ;
#321 = AXIS2_PLACEMENT_3D ( 'NONE', #92, #199, #166 ) ;
#322 = PLANE ( 'NONE',  #60 ) ;
#323 = LOCAL_TIME ( 13, 57, 12.00000000000000000, #172 ) ;
#324 = DIRECTION ( 'NONE',  ( 0.000000000000000000, 1.000000000000000000, 0.000000000000000000 ) ) ;
#325 = EDGE_CURVE ( 'NONE', #240, #13, #268, .T. ) ;
#326 = EDGE_LOOP ( 'NONE', ( #80, #284, #308, #220 ) ) ;
#327 = DIRECTION ( 'NONE',  ( -3.491481338843133355E-15, 1.224646799147353207E-16, -1.000000000000000000 ) ) ;
#328 = ORIENTED_EDGE ( 'NONE', *, *, #241, .F. ) ;
#329 = PERSON_AND_ORGANIZATION ( #177, #122 ) ;
#330 = ORIENTED_EDGE ( 'NONE', *, *, #178, .T. ) ;
#331 = CARTESIAN_POINT ( 'NONE',  ( 0.000000000000000000, 0.000000000000000000, 0.000000000000000000 ) ) ;
#332 = EDGE_LOOP ( 'NONE', ( #133, #187, #31, #351 ) ) ;
#333 = DIRECTION ( 'NONE',  ( -4.237045877651918877E-31, -1.000000000000000000, -1.192622389734054877E-16 ) ) ;
#334 = LOCAL_TIME ( 13, 57, 12.00000000000000000, #161 ) ;
#335 = CARTESIAN_POINT ( 'NONE',  ( 2.496409157272839907E-13, 4.999999999999992006, 71.49999999999998579 ) ) ;
#336 = DIRECTION ( 'NONE',  ( 3.491481338843133355E-15, -1.217917285207545432E-16, 1.000000000000000000 ) ) ;
#337 = CARTESIAN_POINT ( 'NONE',  ( 2.513866563967056016E-13, 3.374459510989167028E-32, 72.00000000000000000 ) ) ;
#338 = DIRECTION ( 'NONE',  ( -2.468850131082299659E-15, 0.7071067811865378028, -0.7071067811865573427 ) ) ;
#339 = VECTOR ( 'NONE', #307, 1000.000000000000000 ) ;
#340 = CIRCLE ( 'NONE', #49, 5.000000000000000888 ) ;
#341 = CARTESIAN_POINT ( 'NONE',  ( 7.681258945454893382E-14, 4.999999999999997335, 22.00000000000000000 ) ) ;
#342 = CALENDAR_DATE ( 2023, 31, 3 ) ;
#343 = EDGE_CURVE ( 'NONE', #4, #211, #134, .T. ) ;
#344 = DIRECTION ( 'NONE',  ( -3.491481338843133355E-15, 1.224646799147353207E-16, -1.000000000000000000 ) ) ;
#345 = UNCERTAINTY_MEASURE_WITH_UNIT (LENGTH_MEASURE( 1.000000000000000082E-05 ), #362, 'distance_accuracy_value', 'NONE');
#346 = CARTESIAN_POINT ( 'NONE',  ( 6.982962677686251919E-16, -2.435834570415085688E-17, 0.1999999999999995670 ) ) ;
#347 = VECTOR ( 'NONE', #212, 1000.000000000000000 ) ;
#348 = EDGE_CURVE ( 'NONE', #185, #4, #357, .T. ) ;
#349 = DIRECTION ( 'NONE',  ( -3.491481338843133355E-15, 1.224646799147353207E-16, -1.000000000000000000 ) ) ;
#350 = VECTOR ( 'NONE', #141, 1000.000000000000000 ) ;
#351 = ORIENTED_EDGE ( 'NONE', *, *, #200, .F. ) ;
#352 = DIRECTION ( 'NONE',  ( 0.000000000000000000, 1.000000000000000000, 0.000000000000000000 ) ) ;
#353 = APPROVAL_ROLE ( '' ) ;
#354 = CARTESIAN_POINT ( 'NONE',  ( 7.681258945454893382E-14, -2.694222958124176809E-15, 22.00000000000000000 ) ) ;
#355 = ORIENTED_EDGE ( 'NONE', *, *, #156, .T. ) ;
#356 = APPLICATION_PROTOCOL_DEFINITION ( 'international standard', 'config_control_design', 1994, #228 ) ;
#357 = CIRCLE ( 'NONE', #190, 4.799999999999998934 ) ;
#358 = DIRECTION ( 'NONE',  ( 0.000000000000000000, 1.000000000000000000, 0.000000000000000000 ) ) ;
#359 = ORIENTED_EDGE ( 'NONE', *, *, #42, .T. ) ;
#360 = LINE ( 'NONE', #305, #173 ) ;
#361 = FACE_OUTER_BOUND ( 'NONE', #326, .T. ) ;
#362 =( LENGTH_UNIT ( ) NAMED_UNIT ( * ) SI_UNIT ( .MILLI., .METRE. ) );
#363 = CARTESIAN_POINT ( 'NONE',  ( 2.513866563967056016E-13, -8.817456953860941711E-15, 72.00000000000000000 ) ) ;
ENDSEC;
END-ISO-10303-21;
