ISO-10303-21;
HEADER;
FILE_DESCRIPTION (( 'STEP AP203' ),
    '1' );
FILE_NAME ('367635.step',
    '2023-04-03T05:26:09',
    ( '' ),
    ( '' ),
    'SwSTEP 2.0',
    'SolidWorks 2022',
    '' );
FILE_SCHEMA (( 'CONFIG_CONTROL_DESIGN' ));
ENDSEC;

DATA;
#1 = AXIS2_PLACEMENT_3D ( 'NONE', #15, #208, #313 ) ;
#2 = AXIS2_PLACEMENT_3D ( 'NONE', #20, #270, #47 ) ;
#3 = APPROVAL_ROLE ( '' ) ;
#4 = ORIENTED_EDGE ( 'NONE', *, *, #297, .T. ) ;
#5 = LINE ( 'NONE', #70, #158 ) ;
#6 = CALENDAR_DATE ( 2023, 3, 4 ) ;
#7 = EDGE_CURVE ( 'NONE', #223, #190, #132, .T. ) ;
#8 = AXIS2_PLACEMENT_3D ( 'NONE', #264, #266, #106 ) ;
#9 = ORIENTED_EDGE ( 'NONE', *, *, #286, .T. ) ;
#10 = FACE_OUTER_BOUND ( 'NONE', #305, .T. ) ;
#11 = VECTOR ( 'NONE', #249, 1000.000000000000000 ) ;
#12 = PLANE ( 'NONE',  #272 ) ;
#13 = EDGE_LOOP ( 'NONE', ( #299, #9, #279, #162 ) ) ;
#14 = DESIGN_CONTEXT ( 'detailed design', #306, 'design' ) ;
#15 = CARTESIAN_POINT ( 'NONE',  ( 2.880472104545584703E-13, -1.010333609296566392E-14, 82.50000000000000000 ) ) ;
#16 = ORIENTED_EDGE ( 'NONE', *, *, #248, .T. ) ;
#17 = CARTESIAN_POINT ( 'NONE',  ( 2.897929511239800811E-13, -1.016456843292303150E-14, 83.00000000000000000 ) ) ;
#18 = ORIENTED_EDGE ( 'NONE', *, *, #54, .F. ) ;
#19 = CYLINDRICAL_SURFACE ( 'NONE', #62, 6.000000000000000000 ) ;
#20 = CARTESIAN_POINT ( 'NONE',  ( -1.282749433769087757E-30, 4.499279347985572824E-32, -3.673940397442059868E-16 ) ) ;
#21 = DIRECTION ( 'NONE',  ( 4.275831445896959482E-31, 1.000000000000000000, 1.224646799147353207E-16 ) ) ;
#22 = VERTEX_POINT ( 'NONE', #318 ) ;
#23 =( NAMED_UNIT ( * ) SI_UNIT ( $, .STERADIAN. ) SOLID_ANGLE_UNIT ( ) );
#24 = CALENDAR_DATE ( 2023, 3, 4 ) ;
#25 = VECTOR ( 'NONE', #271, 1000.000000000000000 ) ;
#26 = CALENDAR_DATE ( 2023, 3, 4 ) ;
#27 = PERSON_AND_ORGANIZATION_ROLE ( 'design_supplier' ) ;
#28 = CC_DESIGN_DATE_AND_TIME_ASSIGNMENT ( #79, #169, ( #197 ) ) ;
#29 = CIRCLE ( 'NONE', #37, 6.000000000000000000 ) ;
#30 = SECURITY_CLASSIFICATION_LEVEL ( 'unclassified' ) ;
#31 = ORIENTED_EDGE ( 'NONE', *, *, #259, .T. ) ;
#32 = LINE ( 'NONE', #314, #11 ) ;
#33 = APPROVAL_DATE_TIME ( #139, #178 ) ;
#34 = LINE ( 'NONE', #115, #84 ) ;
#35 = CARTESIAN_POINT ( 'NONE',  ( 4.472745294891189117E-14, -6.000000000000000000, 0.1999999999999990119 ) ) ;
#36 = ORIENTED_EDGE ( 'NONE', *, *, #127, .T. ) ;
#37 = AXIS2_PLACEMENT_3D ( 'NONE', #300, #269, #213 ) ;
#38 = LINE ( 'NONE', #149, #308 ) ;
#39 = DIRECTION ( 'NONE',  ( -3.491481338843133355E-15, 1.224646799147353207E-16, -1.000000000000000000 ) ) ;
#40 = EDGE_CURVE ( 'NONE', #190, #223, #180, .T. ) ;
#41 = ORIENTED_EDGE ( 'NONE', *, *, #90, .F. ) ;
#42 = DIRECTION ( 'NONE',  ( 0.000000000000000000, 1.000000000000000000, 0.000000000000000000 ) ) ;
#43 = FACE_OUTER_BOUND ( 'NONE', #310, .T. ) ;
#44 = ORGANIZATION ( 'UNSPECIFIED', 'UNSPECIFIED', '' ) ;
#45 = CARTESIAN_POINT ( 'NONE',  ( -5.027345940644853716E-30, -5.799999999999998934, -1.439889105152890096E-15 ) ) ;
#46 = CARTESIAN_POINT ( 'NONE',  ( 0.000000000000000000, 0.000000000000000000, 0.000000000000000000 ) ) ;
#47 = DIRECTION ( 'NONE',  ( 4.275831445896958607E-31, 1.000000000000000000, 1.224646799147353207E-16 ) ) ;
#48 = ORIENTED_EDGE ( 'NONE', *, *, #83, .T. ) ;
#49 = DIRECTION ( 'NONE',  ( 2.555445736705809273E-15, 0.7071067811865489050, 0.7071067811865460184 ) ) ;
#50 = AXIS2_PLACEMENT_3D ( 'NONE', #17, #109, #175 ) ;
#51 = CYLINDRICAL_SURFACE ( 'NONE', #321, 6.000000000000000000 ) ;
#52 = DIRECTION ( 'NONE',  ( 4.275831445896959482E-31, 1.000000000000000000, 1.224646799147353207E-16 ) ) ;
#53 = AXIS2_PLACEMENT_3D ( 'NONE', #121, #39, #235 ) ;
#54 = EDGE_CURVE ( 'NONE', #22, #289, #124, .T. ) ;
#55 = ORIENTED_EDGE ( 'NONE', *, *, #276, .T. ) ;
#56 = PERSON_AND_ORGANIZATION_ROLE ( 'creator' ) ;
#57 = CLOSED_SHELL ( 'NONE', ( #257, #331, #102, #193, #343, #356 ) ) ;
#58 = VERTEX_POINT ( 'NONE', #66 ) ;
#59 = FACE_OUTER_BOUND ( 'NONE', #167, .T. ) ;
#60 = PLANE ( 'NONE',  #142 ) ;
#61 = CARTESIAN_POINT ( 'NONE',  ( 2.880472104545584703E-13, -1.010333609296566392E-14, 82.50000000000000000 ) ) ;
#62 = AXIS2_PLACEMENT_3D ( 'NONE', #330, #189, #21 ) ;
#63 = CARTESIAN_POINT ( 'NONE',  ( 2.565498867538175514E-30, 6.000000000000000000, 7.347880794884119736E-16 ) ) ;
#64 = DIRECTION ( 'NONE',  ( -3.491481338843133355E-15, 1.224646799147353207E-16, -1.000000000000000000 ) ) ;
#65 = APPLICATION_PROTOCOL_DEFINITION ( 'international standard', 'config_control_design', 1994, #315 ) ;
#66 = CARTESIAN_POINT ( 'NONE',  ( 8.728703347107833388E-14, 5.999999999999996447, 25.00000000000000000 ) ) ;
#67 = CLOSED_SHELL ( 'NONE', ( #151, #329, #301, #88, #349, #164 ) ) ;
#68 = DIRECTION ( 'NONE',  ( -3.491481338843133355E-15, 1.224646799147353207E-16, -1.000000000000000000 ) ) ;
#69 = PRODUCT_DEFINITION_FORMATION_WITH_SPECIFIED_SOURCE ( 'ANY', '', #77, .NOT_KNOWN. ) ;
#70 = CARTESIAN_POINT ( 'NONE',  ( 1.433084347257040321E-15, 6.000000000000000000, 0.2000000000000004829 ) ) ;
#71 = CC_DESIGN_PERSON_AND_ORGANIZATION_ASSIGNMENT ( #194, #27, ( #69 ) ) ;
#72 = APPLICATION_PROTOCOL_DEFINITION ( 'international standard', 'config_control_design', 1994, #306 ) ;
#73 =( LENGTH_UNIT ( ) NAMED_UNIT ( * ) SI_UNIT ( .MILLI., .METRE. ) );
#74 = FACE_OUTER_BOUND ( 'NONE', #291, .T. ) ;
#75 = ORIENTED_EDGE ( 'NONE', *, *, #40, .T. ) ;
#76 = CIRCLE ( 'NONE', #254, 6.000000000000000000 ) ;
#77 = PRODUCT ( '367635', '367635', '', ( #188 ) ) ;
#78 = ORIENTED_EDGE ( 'NONE', *, *, #238, .T. ) ;
#79 = DATE_AND_TIME ( #6, #186 ) ;
#80 = CALENDAR_DATE ( 2023, 3, 4 ) ;
#81 = APPROVAL_STATUS ( 'not_yet_approved' ) ;
#82 = VERTEX_POINT ( 'NONE', #45 ) ;
#83 = EDGE_CURVE ( 'NONE', #176, #225, #362, .T. ) ;
#84 = VECTOR ( 'NONE', #290, 1000.000000000000000 ) ;
#85 = DIRECTION ( 'NONE',  ( 3.491481338843133355E-15, -1.217917285207545432E-16, 1.000000000000000000 ) ) ;
#86 = DIRECTION ( 'NONE',  ( 3.491481338843133355E-15, -1.224646799147353207E-16, 1.000000000000000000 ) ) ;
#87 = ORIENTED_EDGE ( 'NONE', *, *, #221, .F. ) ;
#88 = ADVANCED_FACE ( 'NONE', ( #333 ), #131, .T. ) ;
#89 = DIRECTION ( 'NONE',  ( -3.491481338843133355E-15, 1.224646799147353207E-16, -1.000000000000000000 ) ) ;
#90 = EDGE_CURVE ( 'NONE', #344, #223, #5, .T. ) ;
#91 = SHAPE_DEFINITION_REPRESENTATION ( #148, #183 ) ;
#92 = AXIS2_PLACEMENT_3D ( 'NONE', #61, #179, #159 ) ;
#93 = DIRECTION ( 'NONE',  ( -4.275831445896958607E-31, -1.000000000000000000, -1.224646799147353207E-16 ) ) ;
#94 = CARTESIAN_POINT ( 'NONE',  ( 6.982962677686257836E-16, -2.435834570415087537E-17, 0.1999999999999997335 ) ) ;
#95 = LINE ( 'NONE', #63, #98 ) ;
#96 = DIRECTION ( 'NONE',  ( -4.172848212839010723E-31, -1.000000000000000000, -1.219727444046192488E-16 ) ) ;
#97 = CARTESIAN_POINT ( 'NONE',  ( 6.982962677686257836E-16, -2.435834570415087537E-17, 0.1999999999999997335 ) ) ;
#98 = VECTOR ( 'NONE', #347, 1000.000000000000000 ) ;
#99 = PERSON_AND_ORGANIZATION ( #128, #44 ) ;
#100 = CARTESIAN_POINT ( 'NONE',  ( 2.880472104545584703E-13, -1.010333609296566392E-14, 82.50000000000000000 ) ) ;
#101 = FACE_OUTER_BOUND ( 'NONE', #237, .T. ) ;
#102 = ADVANCED_FACE ( 'NONE', ( #101 ), #219, .T. ) ;
#103 = AXIS2_PLACEMENT_3D ( 'NONE', #231, #117, #42 ) ;
#104 = ORIENTED_EDGE ( 'NONE', *, *, #259, .F. ) ;
#105 = CARTESIAN_POINT ( 'NONE',  ( 0.000000000000000000, 0.000000000000000000, 0.000000000000000000 ) ) ;
#106 = DIRECTION ( 'NONE',  ( -4.252335473556635820E-31, -1.000000000000000000, -1.217917285207545432E-16 ) ) ;
#107 = COORDINATED_UNIVERSAL_TIME_OFFSET ( 1, 0, .AHEAD. ) ;
#108 = VERTEX_POINT ( 'NONE', #125 ) ;
#109 = DIRECTION ( 'NONE',  ( -3.491481338843133355E-15, 1.224646799147353207E-16, -1.000000000000000000 ) ) ;
#110 = CIRCLE ( 'NONE', #327, 6.000000000000000000 ) ;
#111 = LOCAL_TIME ( 7, 26, 9.000000000000000000, #107 ) ;
#112 = APPROVAL_ROLE ( '' ) ;
#113 = DIRECTION ( 'NONE',  ( 0.000000000000000000, 1.000000000000000000, 0.000000000000000000 ) ) ;
#114 = ORIENTED_EDGE ( 'NONE', *, *, #251, .T. ) ;
#115 = CARTESIAN_POINT ( 'NONE',  ( 2.887819985340468811E-13, -6.000000000000010658, 82.50000000000000000 ) ) ;
#116 = EDGE_LOOP ( 'NONE', ( #358, #281 ) ) ;
#117 = DIRECTION ( 'NONE',  ( -3.491481338843133355E-15, 1.224646799147353207E-16, -1.000000000000000000 ) ) ;
#118 = EDGE_LOOP ( 'NONE', ( #260, #342 ) ) ;
#119 = AXIS2_PLACEMENT_3D ( 'NONE', #46, #242, #156 ) ;
#120 = ORIENTED_EDGE ( 'NONE', *, *, #286, .F. ) ;
#121 = CARTESIAN_POINT ( 'NONE',  ( 2.897929511239800811E-13, -1.016456843292303150E-14, 83.00000000000000000 ) ) ;
#122 = LOCAL_TIME ( 7, 26, 9.000000000000000000, #351 ) ;
#123 = EDGE_CURVE ( 'NONE', #82, #344, #244, .T. ) ;
#124 = LINE ( 'NONE', #210, #185 ) ;
#125 = CARTESIAN_POINT ( 'NONE',  ( 4.472745294891187854E-14, -6.000000000000003553, 25.00000000000000000 ) ) ;
#126 = CIRCLE ( 'NONE', #103, 6.000000000000000000 ) ;
#127 = EDGE_CURVE ( 'NONE', #108, #190, #32, .T. ) ;
#128 = PERSON ( 'UNSPECIFIED', 'UNSPECIFIED', 'UNSPECIFIED', ('UNSPECIFIED'), ('UNSPECIFIED'), ('UNSPECIFIED') ) ;
#129 = CARTESIAN_POINT ( 'NONE',  ( 0.000000000000000000, 0.000000000000000000, 0.000000000000000000 ) ) ;
#130 = DIRECTION ( 'NONE',  ( 0.000000000000000000, 1.000000000000000000, 0.000000000000000000 ) ) ;
#131 = CYLINDRICAL_SURFACE ( 'NONE', #288, 6.000000000000000000 ) ;
#132 = CIRCLE ( 'NONE', #354, 6.000000000000000000 ) ;
#133 = CC_DESIGN_APPROVAL ( #136, ( #197 ) ) ;
#134 = PERSON_AND_ORGANIZATION ( #128, #44 ) ;
#135 = EDGE_LOOP ( 'NONE', ( #145, #166, #78, #265 ) ) ;
#136 = APPROVAL ( #81, 'UNSPECIFIED' ) ;
#137 = APPROVAL_ROLE ( '' ) ;
#138 = PERSON_AND_ORGANIZATION ( #128, #44 ) ;
#139 = DATE_AND_TIME ( #172, #122 ) ;
#140 = CARTESIAN_POINT ( 'NONE',  ( 1.884019100423068319E-13, -6.000000000000003553, 25.00000000000000000 ) ) ;
#141 = CARTESIAN_POINT ( 'NONE',  ( -2.560991365982005624E-30, 8.933387720554856644E-32, -7.334970797325138532E-16 ) ) ;
#142 = AXIS2_PLACEMENT_3D ( 'NONE', #348, #86, #317 ) ;
#143 =( GEOMETRIC_REPRESENTATION_CONTEXT ( 3 ) GLOBAL_UNCERTAINTY_ASSIGNED_CONTEXT ( ( #207 ) ) GLOBAL_UNIT_ASSIGNED_CONTEXT ( ( #73, #332, #23 ) ) REPRESENTATION_CONTEXT ( 'NONE', 'WORKASPACE' ) );
#144 = CC_DESIGN_PERSON_AND_ORGANIZATION_ASSIGNMENT ( #134, #247, ( #69 ) ) ;
#145 = ORIENTED_EDGE ( 'NONE', *, *, #83, .F. ) ;
#146 = APPROVAL_STATUS ( 'not_yet_approved' ) ;
#147 = CARTESIAN_POINT ( 'NONE',  ( 6.982962677686233184E-16, -6.000000000000000000, 0.1999999999999990119 ) ) ;
#148 = PRODUCT_DEFINITION_SHAPE ( 'NONE', 'NONE',  #197 ) ;
#149 = CARTESIAN_POINT ( 'NONE',  ( 2.565498867538175514E-30, 6.000000000000000000, 7.347880794884119736E-16 ) ) ;
#150 = ORIENTED_EDGE ( 'NONE', *, *, #40, .F. ) ;
#151 = ADVANCED_FACE ( 'NONE', ( #204 ), #267, .T. ) ;
#152 = CONICAL_SURFACE ( 'NONE', #255, 6.000000000000000000, 0.7853981633974482790 ) ;
#153 = CARTESIAN_POINT ( 'NONE',  ( 6.982962677686257836E-16, -2.435834570415087537E-17, 0.1999999999999997335 ) ) ;
#154 = APPROVAL_PERSON_ORGANIZATION ( #226, #178, #112 ) ;
#155 = FACE_OUTER_BOUND ( 'NONE', #173, .T. ) ;
#156 = DIRECTION ( 'NONE',  ( 4.275831445896959482E-31, 1.000000000000000000, 1.224646799147353207E-16 ) ) ;
#157 = FACE_OUTER_BOUND ( 'NONE', #198, .T. ) ;
#158 = VECTOR ( 'NONE', #49, 1000.000000000000114 ) ;
#159 = DIRECTION ( 'NONE',  ( 0.000000000000000000, 1.000000000000000000, 0.000000000000000000 ) ) ;
#160 = CC_DESIGN_PERSON_AND_ORGANIZATION_ASSIGNMENT ( #99, #212, ( #77 ) ) ;
#161 = DIRECTION ( 'NONE',  ( -4.172848212839010723E-31, -1.000000000000000000, -1.219727444046192488E-16 ) ) ;
#162 = ORIENTED_EDGE ( 'NONE', *, *, #307, .F. ) ;
#163 = COORDINATED_UNIVERSAL_TIME_OFFSET ( 1, 0, .AHEAD. ) ;
#164 = ADVANCED_FACE ( 'NONE', ( #59 ), #285, .F. ) ;
#165 = PERSON_AND_ORGANIZATION ( #128, #44 ) ;
#166 = ORIENTED_EDGE ( 'NONE', *, *, #307, .T. ) ;
#167 = EDGE_LOOP ( 'NONE', ( #220, #120 ) ) ;
#168 = DATE_AND_TIME ( #24, #268 ) ;
#169 = DATE_TIME_ROLE ( 'creation_date' ) ;
#170 = ORIENTED_EDGE ( 'NONE', *, *, #7, .T. ) ;
#171 = AXIS2_PLACEMENT_3D ( 'NONE', #94, #262, #96 ) ;
#172 = CALENDAR_DATE ( 2023, 3, 4 ) ;
#173 = EDGE_LOOP ( 'NONE', ( #31, #48, #294, #335 ) ) ;
#174 = DIRECTION ( 'NONE',  ( 4.275831445896958607E-31, 1.000000000000000000, 1.224646799147353207E-16 ) ) ;
#175 = DIRECTION ( 'NONE',  ( 0.000000000000000000, 1.000000000000000000, 0.000000000000000000 ) ) ;
#176 = VERTEX_POINT ( 'NONE', #181 ) ;
#177 = DATE_TIME_ROLE ( 'classification_date' ) ;
#178 = APPROVAL ( #146, 'UNSPECIFIED' ) ;
#179 = DIRECTION ( 'NONE',  ( -3.491481338843133355E-15, 1.224646799147353207E-16, -1.000000000000000000 ) ) ;
#180 = CIRCLE ( 'NONE', #171, 6.000000000000000000 ) ;
#181 = CARTESIAN_POINT ( 'NONE',  ( 1.884019100423067814E-13, -6.000000000000011546, 82.50000000000000000 ) ) ;
#182 = CARTESIAN_POINT ( 'NONE',  ( 4.399266486942349290E-14, 6.000000000000000000, 0.2000000000000004829 ) ) ;
#183 = ADVANCED_BREP_SHAPE_REPRESENTATION ( '367635', ( #360, #229, #200 ), #143 ) ;
#184 = ORIENTED_EDGE ( 'NONE', *, *, #297, .F. ) ;
#185 = VECTOR ( 'NONE', #325, 1000.000000000000000 ) ;
#186 = LOCAL_TIME ( 7, 26, 9.000000000000000000, #339 ) ;
#187 = CC_DESIGN_APPROVAL ( #178, ( #240 ) ) ;
#188 = MECHANICAL_CONTEXT ( 'NONE', #315, 'mechanical' ) ;
#189 = DIRECTION ( 'NONE',  ( -3.491481338843133355E-15, 1.224646799147353207E-16, -1.000000000000000000 ) ) ;
#190 = VERTEX_POINT ( 'NONE', #35 ) ;
#191 = ORIENTED_EDGE ( 'NONE', *, *, #127, .F. ) ;
#192 = ORIENTED_EDGE ( 'NONE', *, *, #123, .T. ) ;
#193 = ADVANCED_FACE ( 'NONE', ( #228 ), #12, .T. ) ;
#194 = PERSON_AND_ORGANIZATION ( #128, #44 ) ;
#195 = AXIS2_PLACEMENT_3D ( 'NONE', #209, #68, #130 ) ;
#196 = DATE_AND_TIME ( #80, #340 ) ;
#197 = PRODUCT_DEFINITION ( 'UNKNOWN', '', #69, #14 ) ;
#198 = EDGE_LOOP ( 'NONE', ( #246, #87 ) ) ;
#199 = CIRCLE ( 'NONE', #206, 5.799999999999998934 ) ;
#200 = AXIS2_PLACEMENT_3D ( 'NONE', #326, #236, #241 ) ;
#201 = CC_DESIGN_SECURITY_CLASSIFICATION ( #240, ( #69 ) ) ;
#202 = VERTEX_POINT ( 'NONE', #322 ) ;
#203 = DIRECTION ( 'NONE',  ( -4.252335473556635820E-31, -1.000000000000000000, -1.217917285207545432E-16 ) ) ;
#204 = FACE_OUTER_BOUND ( 'NONE', #250, .T. ) ;
#205 = CARTESIAN_POINT ( 'NONE',  ( 2.896242526987789965E-13, -5.500000000000009770, 83.00000000000000000 ) ) ;
#206 = AXIS2_PLACEMENT_3D ( 'NONE', #141, #85, #203 ) ;
#207 = UNCERTAINTY_MEASURE_WITH_UNIT (LENGTH_MEASURE( 1.000000000000000082E-05 ), #73, 'distance_accuracy_value', 'NONE');
#208 = DIRECTION ( 'NONE',  ( -3.491481338843133355E-15, 1.224646799147353207E-16, -1.000000000000000000 ) ) ;
#209 = CARTESIAN_POINT ( 'NONE',  ( 8.728703347107833388E-14, -3.061616997868383043E-15, 25.00000000000000000 ) ) ;
#210 = CARTESIAN_POINT ( 'NONE',  ( 2.880472104545584703E-13, 5.999999999999989342, 82.50000000000000000 ) ) ;
#211 = CIRCLE ( 'NONE', #53, 5.500000000000000000 ) ;
#212 = PERSON_AND_ORGANIZATION_ROLE ( 'design_owner' ) ;
#213 = DIRECTION ( 'NONE',  ( 0.000000000000000000, 1.000000000000000000, 0.000000000000000000 ) ) ;
#214 = PLANE ( 'NONE',  #2 ) ;
#215 = CARTESIAN_POINT ( 'NONE',  ( 7.347880794884094098E-16, -6.000000000000000000, -7.347880794884144388E-16 ) ) ;
#216 = AXIS2_PLACEMENT_3D ( 'NONE', #227, #64, #174 ) ;
#217 = DIRECTION ( 'NONE',  ( -3.491481338843133355E-15, 1.224646799147353207E-16, -1.000000000000000000 ) ) ;
#218 = APPROVAL_STATUS ( 'not_yet_approved' ) ;
#219 = CYLINDRICAL_SURFACE ( 'NONE', #119, 6.000000000000000000 ) ;
#220 = ORIENTED_EDGE ( 'NONE', *, *, #283, .F. ) ;
#221 = EDGE_CURVE ( 'NONE', #344, #82, #199, .T. ) ;
#222 = PERSON_AND_ORGANIZATION_ROLE ( 'classification_officer' ) ;
#223 = VERTEX_POINT ( 'NONE', #182 ) ;
#224 = APPROVAL_DATE_TIME ( #168, #136 ) ;
#225 = VERTEX_POINT ( 'NONE', #140 ) ;
#226 = PERSON_AND_ORGANIZATION ( #128, #44 ) ;
#227 = CARTESIAN_POINT ( 'NONE',  ( 2.897929511239800811E-13, 4.124339402320093095E-32, 83.00000000000000000 ) ) ;
#228 = FACE_OUTER_BOUND ( 'NONE', #118, .T. ) ;
#229 = MANIFOLD_SOLID_BREP ( 'Corps-Déplacer/Copier1[2]', #57 ) ;
#230 = ORIENTED_EDGE ( 'NONE', *, *, #311, .T. ) ;
#231 = CARTESIAN_POINT ( 'NONE',  ( 8.728703347107833388E-14, -3.061616997868383043E-15, 25.00000000000000000 ) ) ;
#232 = EDGE_CURVE ( 'NONE', #225, #58, #126, .T. ) ;
#233 = DIRECTION ( 'NONE',  ( 3.491481338843133355E-15, -1.217917285207545432E-16, 1.000000000000000000 ) ) ;
#234 = DIRECTION ( 'NONE',  ( -4.172848212839010723E-31, -1.000000000000000000, -1.219727444046192488E-16 ) ) ;
#235 = DIRECTION ( 'NONE',  ( 0.000000000000000000, 1.000000000000000000, 0.000000000000000000 ) ) ;
#236 = DIRECTION ( 'NONE',  ( 0.000000000000000000, 0.000000000000000000, 1.000000000000000000 ) ) ;
#237 = EDGE_LOOP ( 'NONE', ( #191, #55, #4, #170 ) ) ;
#238 = EDGE_CURVE ( 'NONE', #289, #58, #38, .T. ) ;
#239 = CC_DESIGN_DATE_AND_TIME_ASSIGNMENT ( #196, #177, ( #240 ) ) ;
#240 = SECURITY_CLASSIFICATION ( '', '', #30 ) ;
#241 = DIRECTION ( 'NONE',  ( 1.000000000000000000, 0.000000000000000000, 0.000000000000000000 ) ) ;
#242 = DIRECTION ( 'NONE',  ( -3.491481338843133355E-15, 1.224646799147353207E-16, -1.000000000000000000 ) ) ;
#243 = CARTESIAN_POINT ( 'NONE',  ( 1.071689745381254812E-15, 5.799999999999998934, -2.710505431214136718E-17 ) ) ;
#244 = CIRCLE ( 'NONE', #8, 5.799999999999998934 ) ;
#245 = APPROVAL_PERSON_ORGANIZATION ( #275, #136, #137 ) ;
#246 = ORIENTED_EDGE ( 'NONE', *, *, #123, .F. ) ;
#247 = PERSON_AND_ORGANIZATION_ROLE ( 'creator' ) ;
#248 = EDGE_CURVE ( 'NONE', #82, #190, #287, .T. ) ;
#249 = DIRECTION ( 'NONE',  ( -3.491481338843133355E-15, 1.224646799147353207E-16, -1.000000000000000000 ) ) ;
#250 = EDGE_LOOP ( 'NONE', ( #277, #114, #104, #18 ) ) ;
#251 = EDGE_CURVE ( 'NONE', #292, #176, #34, .T. ) ;
#252 = DIRECTION ( 'NONE',  ( -3.491481338843133355E-15, 1.224646799147353207E-16, -1.000000000000000000 ) ) ;
#253 = CARTESIAN_POINT ( 'NONE',  ( 6.982962677686257836E-16, -2.435834570415087537E-17, 0.1999999999999997335 ) ) ;
#254 = AXIS2_PLACEMENT_3D ( 'NONE', #258, #89, #113 ) ;
#255 = AXIS2_PLACEMENT_3D ( 'NONE', #100, #323, #298 ) ;
#256 = DIRECTION ( 'NONE',  ( -4.172848212839010723E-31, -1.000000000000000000, -1.219727444046192488E-16 ) ) ;
#257 = ADVANCED_FACE ( 'NONE', ( #10 ), #296, .T. ) ;
#258 = CARTESIAN_POINT ( 'NONE',  ( 8.728703347107833388E-14, -3.061616997868383043E-15, 25.00000000000000000 ) ) ;
#259 = EDGE_CURVE ( 'NONE', #289, #176, #110, .T. ) ;
#260 = ORIENTED_EDGE ( 'NONE', *, *, #311, .F. ) ;
#261 = DIRECTION ( 'NONE',  ( 2.468850131082259427E-15, -0.7071067811865492381, 0.7071067811865457964 ) ) ;
#262 = DIRECTION ( 'NONE',  ( 3.491481338843133355E-15, -1.217917285207545432E-16, 1.000000000000000000 ) ) ;
#263 = AXIS2_PLACEMENT_3D ( 'NONE', #153, #304, #161 ) ;
#264 = CARTESIAN_POINT ( 'NONE',  ( -2.560991365982005624E-30, 8.933387720554856644E-32, -7.334970797325138532E-16 ) ) ;
#265 = ORIENTED_EDGE ( 'NONE', *, *, #232, .F. ) ;
#266 = DIRECTION ( 'NONE',  ( 3.491481338843133355E-15, -1.217917285207545432E-16, 1.000000000000000000 ) ) ;
#267 = CONICAL_SURFACE ( 'NONE', #1, 6.000000000000000000, 0.7853981633974482790 ) ;
#268 = LOCAL_TIME ( 7, 26, 9.000000000000000000, #163 ) ;
#269 = DIRECTION ( 'NONE',  ( -3.491481338843133355E-15, 1.224646799147353207E-16, -1.000000000000000000 ) ) ;
#270 = DIRECTION ( 'NONE',  ( -3.491481338843133355E-15, 1.224646799147353207E-16, -1.000000000000000000 ) ) ;
#271 = DIRECTION ( 'NONE',  ( -3.491481338843133355E-15, 1.224646799147353207E-16, -1.000000000000000000 ) ) ;
#272 = AXIS2_PLACEMENT_3D ( 'NONE', #293, #353, #93 ) ;
#273 = APPROVAL_PERSON_ORGANIZATION ( #274, #319, #3 ) ;
#274 = PERSON_AND_ORGANIZATION ( #128, #44 ) ;
#275 = PERSON_AND_ORGANIZATION ( #128, #44 ) ;
#276 = EDGE_CURVE ( 'NONE', #108, #202, #76, .T. ) ;
#277 = ORIENTED_EDGE ( 'NONE', *, *, #283, .T. ) ;
#278 = CC_DESIGN_PERSON_AND_ORGANIZATION_ASSIGNMENT ( #165, #56, ( #197 ) ) ;
#279 = ORIENTED_EDGE ( 'NONE', *, *, #54, .T. ) ;
#280 = APPROVAL_DATE_TIME ( #337, #319 ) ;
#281 = ORIENTED_EDGE ( 'NONE', *, *, #232, .T. ) ;
#282 = CIRCLE ( 'NONE', #50, 5.500000000000000000 ) ;
#283 = EDGE_CURVE ( 'NONE', #22, #292, #282, .T. ) ;
#284 = DIRECTION ( 'NONE',  ( -3.491481338843133355E-15, 1.224646799147353207E-16, -1.000000000000000000 ) ) ;
#285 = PLANE ( 'NONE',  #216 ) ;
#286 = EDGE_CURVE ( 'NONE', #292, #22, #211, .T. ) ;
#287 = LINE ( 'NONE', #147, #312 ) ;
#288 = AXIS2_PLACEMENT_3D ( 'NONE', #105, #217, #52 ) ;
#289 = VERTEX_POINT ( 'NONE', #357 ) ;
#290 = DIRECTION ( 'NONE',  ( -2.382254525458716681E-15, -0.7071067811865474617, -0.7071067811865476838 ) ) ;
#291 = EDGE_LOOP ( 'NONE', ( #230, #36, #75, #184 ) ) ;
#292 = VERTEX_POINT ( 'NONE', #205 ) ;
#293 = CARTESIAN_POINT ( 'NONE',  ( 8.728703347107833388E-14, 4.499279347985567350E-32, 25.00000000000000000 ) ) ;
#294 = ORIENTED_EDGE ( 'NONE', *, *, #324, .F. ) ;
#295 = DIRECTION ( 'NONE',  ( 4.275831445896959482E-31, 1.000000000000000000, 1.224646799147353207E-16 ) ) ;
#296 = CONICAL_SURFACE ( 'NONE', #346, 6.000000000000000000, 0.7853981633974506105 ) ;
#297 = EDGE_CURVE ( 'NONE', #202, #223, #95, .T. ) ;
#298 = DIRECTION ( 'NONE',  ( 0.000000000000000000, 1.000000000000000000, 0.000000000000000000 ) ) ;
#299 = ORIENTED_EDGE ( 'NONE', *, *, #251, .F. ) ;
#300 = CARTESIAN_POINT ( 'NONE',  ( 8.728703347107833388E-14, -3.061616997868383043E-15, 25.00000000000000000 ) ) ;
#301 = ADVANCED_FACE ( 'NONE', ( #316 ), #60, .F. ) ;
#302 = ORIENTED_EDGE ( 'NONE', *, *, #221, .T. ) ;
#303 = CONICAL_SURFACE ( 'NONE', #263, 6.000000000000000000, 0.7853981633974506105 ) ;
#304 = DIRECTION ( 'NONE',  ( 3.491481338843133355E-15, -1.217917285207545432E-16, 1.000000000000000000 ) ) ;
#305 = EDGE_LOOP ( 'NONE', ( #192, #355, #150, #338 ) ) ;
#306 = APPLICATION_CONTEXT ( 'configuration controlled 3d designs of mechanical parts and assemblies' ) ;
#307 = EDGE_CURVE ( 'NONE', #176, #289, #361, .T. ) ;
#308 = VECTOR ( 'NONE', #284, 1000.000000000000000 ) ;
#309 = CC_DESIGN_PERSON_AND_ORGANIZATION_ASSIGNMENT ( #138, #222, ( #240 ) ) ;
#310 = EDGE_LOOP ( 'NONE', ( #41, #302, #16, #345 ) ) ;
#311 = EDGE_CURVE ( 'NONE', #202, #108, #334, .T. ) ;
#312 = VECTOR ( 'NONE', #261, 1000.000000000000000 ) ;
#313 = DIRECTION ( 'NONE',  ( 0.000000000000000000, 1.000000000000000000, 0.000000000000000000 ) ) ;
#314 = CARTESIAN_POINT ( 'NONE',  ( 7.347880794884094098E-16, -6.000000000000000000, -7.347880794884144388E-16 ) ) ;
#315 = APPLICATION_CONTEXT ( 'configuration controlled 3d designs of mechanical parts and assemblies' ) ;
#316 = FACE_OUTER_BOUND ( 'NONE', #116, .T. ) ;
#317 = DIRECTION ( 'NONE',  ( -4.275831445896958607E-31, -1.000000000000000000, -1.224646799147353207E-16 ) ) ;
#318 = CARTESIAN_POINT ( 'NONE',  ( 2.897929511239800811E-13, 5.499999999999989342, 83.00000000000000000 ) ) ;
#319 = APPROVAL ( #218, 'UNSPECIFIED' ) ;
#320 = CARTESIAN_POINT ( 'NONE',  ( 2.880472104545584703E-13, -1.010333609296566392E-14, 82.50000000000000000 ) ) ;
#321 = AXIS2_PLACEMENT_3D ( 'NONE', #129, #359, #295 ) ;
#322 = CARTESIAN_POINT ( 'NONE',  ( 8.728703347107833388E-14, 5.999999999999996447, 25.00000000000000000 ) ) ;
#323 = DIRECTION ( 'NONE',  ( -3.491481338843133355E-15, 1.224646799147353207E-16, -1.000000000000000000 ) ) ;
#324 = EDGE_CURVE ( 'NONE', #58, #225, #29, .T. ) ;
#325 = DIRECTION ( 'NONE',  ( -2.468850131082265344E-15, 0.7071067811865476838, -0.7071067811865474617 ) ) ;
#326 = CARTESIAN_POINT ( 'NONE',  ( 0.000000000000000000, 0.000000000000000000, 0.000000000000000000 ) ) ;
#327 = AXIS2_PLACEMENT_3D ( 'NONE', #320, #252, #352 ) ;
#328 = CC_DESIGN_APPROVAL ( #319, ( #69 ) ) ;
#329 = ADVANCED_FACE ( 'NONE', ( #155 ), #19, .T. ) ;
#330 = CARTESIAN_POINT ( 'NONE',  ( 0.000000000000000000, 0.000000000000000000, 0.000000000000000000 ) ) ;
#331 = ADVANCED_FACE ( 'NONE', ( #74 ), #51, .T. ) ;
#332 =( NAMED_UNIT ( * ) PLANE_ANGLE_UNIT ( ) SI_UNIT ( $, .RADIAN. ) );
#333 = FACE_OUTER_BOUND ( 'NONE', #135, .T. ) ;
#334 = CIRCLE ( 'NONE', #195, 6.000000000000000000 ) ;
#335 = ORIENTED_EDGE ( 'NONE', *, *, #238, .F. ) ;
#336 = PRODUCT_RELATED_PRODUCT_CATEGORY ( 'detail', '', ( #77 ) ) ;
#337 = DATE_AND_TIME ( #26, #111 ) ;
#338 = ORIENTED_EDGE ( 'NONE', *, *, #248, .F. ) ;
#339 = COORDINATED_UNIVERSAL_TIME_OFFSET ( 1, 0, .AHEAD. ) ;
#340 = LOCAL_TIME ( 7, 26, 9.000000000000000000, #341 ) ;
#341 = COORDINATED_UNIVERSAL_TIME_OFFSET ( 1, 0, .AHEAD. ) ;
#342 = ORIENTED_EDGE ( 'NONE', *, *, #276, .F. ) ;
#343 = ADVANCED_FACE ( 'NONE', ( #43 ), #303, .T. ) ;
#344 = VERTEX_POINT ( 'NONE', #243 ) ;
#345 = ORIENTED_EDGE ( 'NONE', *, *, #7, .F. ) ;
#346 = AXIS2_PLACEMENT_3D ( 'NONE', #253, #233, #256 ) ;
#347 = DIRECTION ( 'NONE',  ( -3.491481338843133355E-15, 1.224646799147353207E-16, -1.000000000000000000 ) ) ;
#348 = CARTESIAN_POINT ( 'NONE',  ( 8.728703347107833388E-14, 4.499279347985567350E-32, 25.00000000000000000 ) ) ;
#349 = ADVANCED_FACE ( 'NONE', ( #363 ), #152, .T. ) ;
#350 = DIRECTION ( 'NONE',  ( 3.491481338843133355E-15, -1.217917285207545432E-16, 1.000000000000000000 ) ) ;
#351 = COORDINATED_UNIVERSAL_TIME_OFFSET ( 1, 0, .AHEAD. ) ;
#352 = DIRECTION ( 'NONE',  ( 0.000000000000000000, 1.000000000000000000, 0.000000000000000000 ) ) ;
#353 = DIRECTION ( 'NONE',  ( 3.491481338843133355E-15, -1.224646799147353207E-16, 1.000000000000000000 ) ) ;
#354 = AXIS2_PLACEMENT_3D ( 'NONE', #97, #350, #234 ) ;
#355 = ORIENTED_EDGE ( 'NONE', *, *, #90, .T. ) ;
#356 = ADVANCED_FACE ( 'NONE', ( #157 ), #214, .T. ) ;
#357 = CARTESIAN_POINT ( 'NONE',  ( 2.880472104545584703E-13, 5.999999999999989342, 82.50000000000000000 ) ) ;
#358 = ORIENTED_EDGE ( 'NONE', *, *, #324, .T. ) ;
#359 = DIRECTION ( 'NONE',  ( -3.491481338843133355E-15, 1.224646799147353207E-16, -1.000000000000000000 ) ) ;
#360 = MANIFOLD_SOLID_BREP ( 'Corps-Déplacer/Copier1[1]', #67 ) ;
#361 = CIRCLE ( 'NONE', #92, 6.000000000000000000 ) ;
#362 = LINE ( 'NONE', #215, #25 ) ;
#363 = FACE_OUTER_BOUND ( 'NONE', #13, .T. ) ;
ENDSEC;
END-ISO-10303-21;
