ISO-10303-21;
HEADER;
FILE_DESCRIPTION (( 'STEP AP203' ),
    '1' );
FILE_NAME ('367631.step',
    '2023-04-03T05:26:08',
    ( '' ),
    ( '' ),
    'SwSTEP 2.0',
    'SolidWorks 2022',
    '' );
FILE_SCHEMA (( 'CONFIG_CONTROL_DESIGN' ));
ENDSEC;

DATA;
#1 = FACE_OUTER_BOUND ( 'NONE', #120, .T. ) ;
#2 = DIRECTION ( 'NONE',  ( -4.237045877651918877E-31, -1.000000000000000000, -1.192622389734054877E-16 ) ) ;
#3 = DIRECTION ( 'NONE',  ( -3.491481338843133355E-15, 1.224646799147353207E-16, -1.000000000000000000 ) ) ;
#4 = COORDINATED_UNIVERSAL_TIME_OFFSET ( 1, 0, .AHEAD. ) ;
#5 = EDGE_LOOP ( 'NONE', ( #144, #289, #22, #252 ) ) ;
#6 = CIRCLE ( 'NONE', #207, 5.000000000000000000 ) ;
#7 = APPROVAL_ROLE ( '' ) ;
#8 = ORIENTED_EDGE ( 'NONE', *, *, #28, .T. ) ;
#9 = ADVANCED_BREP_SHAPE_REPRESENTATION ( '367631', ( #352, #351, #103 ), #322 ) ;
#10 = VERTEX_POINT ( 'NONE', #234 ) ;
#11 = DIRECTION ( 'NONE',  ( -4.275831445896958607E-31, -1.000000000000000000, -1.224646799147353207E-16 ) ) ;
#12 = ORIENTED_EDGE ( 'NONE', *, *, #147, .T. ) ;
#13 = CARTESIAN_POINT ( 'NONE',  ( 1.310619667342304384E-15, 5.000000000000000000, 0.2000000000000002887 ) ) ;
#14 = PERSON_AND_ORGANIZATION ( #339, #250 ) ;
#15 = ORIENTED_EDGE ( 'NONE', *, *, #158, .F. ) ;
#16 = COORDINATED_UNIVERSAL_TIME_OFFSET ( 1, 0, .AHEAD. ) ;
#17 = LINE ( 'NONE', #153, #19 ) ;
#18 = LOCAL_TIME ( 7, 26, 8.000000000000000000, #285 ) ;
#19 = VECTOR ( 'NONE', #131, 1000.000000000000000 ) ;
#20 = DATE_TIME_ROLE ( 'creation_date' ) ;
#21 = EDGE_LOOP ( 'NONE', ( #106, #310, #102, #34 ) ) ;
#22 = ORIENTED_EDGE ( 'NONE', *, *, #75, .T. ) ;
#23 = LOCAL_TIME ( 7, 26, 8.000000000000000000, #324 ) ;
#24 = CARTESIAN_POINT ( 'NONE',  ( 9.492250654665190719E-16, 4.799999999999998934, -3.274080905458300950E-30 ) ) ;
#25 = PLANE ( 'NONE',  #223 ) ;
#26 = DIRECTION ( 'NONE',  ( 3.491481338843133355E-15, -1.217917285207545432E-16, 1.000000000000000000 ) ) ;
#27 = CONICAL_SURFACE ( 'NONE', #230, 4.999999999999999112, 0.7853981633974327359 ) ;
#28 = EDGE_CURVE ( 'NONE', #275, #99, #119, .T. ) ;
#29 = AXIS2_PLACEMENT_3D ( 'NONE', #86, #198, #191 ) ;
#30 = DIRECTION ( 'NONE',  ( -4.275831445896958607E-31, -1.000000000000000000, -1.224646799147353207E-16 ) ) ;
#31 = CARTESIAN_POINT ( 'NONE',  ( 6.123233995736743603E-16, -4.999999999999999112, -6.123233995736786004E-16 ) ) ;
#32 = EDGE_LOOP ( 'NONE', ( #309, #124, #15, #242 ) ) ;
#33 = DIRECTION ( 'NONE',  ( 0.000000000000000000, 1.000000000000000000, 0.000000000000000000 ) ) ;
#34 = ORIENTED_EDGE ( 'NONE', *, *, #147, .F. ) ;
#35 = EDGE_CURVE ( 'NONE', #282, #148, #248, .T. ) ;
#36 = DIRECTION ( 'NONE',  ( -3.491481338843133355E-15, 1.224646799147353207E-16, -1.000000000000000000 ) ) ;
#37 = ORIENTED_EDGE ( 'NONE', *, *, #110, .F. ) ;
#38 = DIRECTION ( 'NONE',  ( 4.275831445896958607E-31, 1.000000000000000000, 1.224646799147353207E-16 ) ) ;
#39 = VERTEX_POINT ( 'NONE', #51 ) ;
#40 = CARTESIAN_POINT ( 'NONE',  ( 7.681258945454893382E-14, 3.749399456654640188E-32, 22.00000000000000000 ) ) ;
#41 = PERSON_AND_ORGANIZATION ( #339, #250 ) ;
#42 = LINE ( 'NONE', #259, #292 ) ;
#43 = AXIS2_PLACEMENT_3D ( 'NONE', #40, #348, #11 ) ;
#44 = EDGE_CURVE ( 'NONE', #142, #172, #262, .T. ) ;
#45 = APPROVAL_ROLE ( '' ) ;
#46 = DIRECTION ( 'NONE',  ( 2.468850131082258244E-15, -0.7071067811865495711, 0.7071067811865454633 ) ) ;
#47 = CYLINDRICAL_SURFACE ( 'NONE', #166, 5.000000000000000000 ) ;
#48 = DATE_TIME_ROLE ( 'classification_date' ) ;
#49 = AXIS2_PLACEMENT_3D ( 'NONE', #303, #3, #170 ) ;
#50 = AXIS2_PLACEMENT_3D ( 'NONE', #169, #301, #163 ) ;
#51 = CARTESIAN_POINT ( 'NONE',  ( 2.513866563967056016E-13, 4.499999999999992006, 72.00000000000000000 ) ) ;
#52 = APPLICATION_CONTEXT ( 'configuration controlled 3d designs of mechanical parts and assemblies' ) ;
#53 = CARTESIAN_POINT ( 'NONE',  ( -4.082242054614368845E-30, -4.799999999999998934, -1.169200593799243300E-15 ) ) ;
#54 = CARTESIAN_POINT ( 'NONE',  ( 2.496409157272839907E-13, -8.756224613903572559E-15, 71.49999999999998579 ) ) ;
#55 = DIRECTION ( 'NONE',  ( -3.491481338843133355E-15, 1.224646799147353207E-16, -1.000000000000000000 ) ) ;
#56 = CC_DESIGN_PERSON_AND_ORGANIZATION_ASSIGNMENT ( #201, #308, ( #287 ) ) ;
#57 = DIRECTION ( 'NONE',  ( 4.275831445896958607E-31, 1.000000000000000000, 1.224646799147353207E-16 ) ) ;
#58 = LINE ( 'NONE', #167, #244 ) ;
#59 = CARTESIAN_POINT ( 'NONE',  ( 2.496409157272839907E-13, -8.756224613903572559E-15, 71.49999999999998579 ) ) ;
#60 = CARTESIAN_POINT ( 'NONE',  ( 2.510954932915897566E-13, -4.500000000000008882, 72.00000000000000000 ) ) ;
#61 = PLANE ( 'NONE',  #188 ) ;
#62 = VECTOR ( 'NONE', #118, 1000.000000000000000 ) ;
#63 = APPLICATION_PROTOCOL_DEFINITION ( 'international standard', 'config_control_design', 1994, #274 ) ;
#64 = VERTEX_POINT ( 'NONE', #291 ) ;
#65 = ORIENTED_EDGE ( 'NONE', *, *, #199, .T. ) ;
#66 = FACE_OUTER_BOUND ( 'NONE', #70, .T. ) ;
#67 = CARTESIAN_POINT ( 'NONE',  ( 7.681258945454893382E-14, -2.694222958124176809E-15, 22.00000000000000000 ) ) ;
#68 = AXIS2_PLACEMENT_3D ( 'NONE', #200, #26, #2 ) ;
#69 = DATE_AND_TIME ( #288, #162 ) ;
#70 = EDGE_LOOP ( 'NONE', ( #178, #116 ) ) ;
#71 = CLOSED_SHELL ( 'NONE', ( #270, #72, #258, #236, #255, #316 ) ) ;
#72 = ADVANCED_FACE ( 'NONE', ( #286 ), #47, .T. ) ;
#73 = DATE_AND_TIME ( #183, #23 ) ;
#74 = DIRECTION ( 'NONE',  ( 3.491481338843133355E-15, -1.217917285207545432E-16, 1.000000000000000000 ) ) ;
#75 = EDGE_CURVE ( 'NONE', #226, #64, #17, .T. ) ;
#76 = DATE_AND_TIME ( #89, #196 ) ;
#77 = DIRECTION ( 'NONE',  ( 0.000000000000000000, 1.000000000000000000, 0.000000000000000000 ) ) ;
#78 = APPROVAL_DATE_TIME ( #130, #269 ) ;
#79 = LINE ( 'NONE', #13, #140 ) ;
#80 = AXIS2_PLACEMENT_3D ( 'NONE', #221, #336, #304 ) ;
#81 = DIRECTION ( 'NONE',  ( -4.237045877651918877E-31, -1.000000000000000000, -1.192622389734054877E-16 ) ) ;
#82 = CARTESIAN_POINT ( 'NONE',  ( -1.068957861474239564E-30, 3.749399456654644020E-32, -3.061616997868383141E-16 ) ) ;
#83 = CARTESIAN_POINT ( 'NONE',  ( 0.000000000000000000, 0.000000000000000000, 0.000000000000000000 ) ) ;
#84 = CYLINDRICAL_SURFACE ( 'NONE', #80, 4.999999999999999112 ) ;
#85 = FACE_OUTER_BOUND ( 'NONE', #313, .T. ) ;
#86 = CARTESIAN_POINT ( 'NONE',  ( -2.041121027307184423E-30, 7.119948065315121647E-32, -5.846002968996216498E-16 ) ) ;
#87 = DIRECTION ( 'NONE',  ( 3.491481338843133355E-15, -1.224646799147353207E-16, 1.000000000000000000 ) ) ;
#88 = AXIS2_PLACEMENT_3D ( 'NONE', #137, #245, #81 ) ;
#89 = CALENDAR_DATE ( 2023, 3, 4 ) ;
#90 = CIRCLE ( 'NONE', #145, 4.999999999999999112 ) ;
#91 = EDGE_CURVE ( 'NONE', #39, #142, #265, .T. ) ;
#92 =( NAMED_UNIT ( * ) PLANE_ANGLE_UNIT ( ) SI_UNIT ( $, .RADIAN. ) );
#93 = ORIENTED_EDGE ( 'NONE', *, *, #160, .F. ) ;
#94 = AXIS2_PLACEMENT_3D ( 'NONE', #105, #326, #77 ) ;
#95 = UNCERTAINTY_MEASURE_WITH_UNIT (LENGTH_MEASURE( 1.000000000000000082E-05 ), #203, 'distance_accuracy_value', 'NONE');
#96 = FACE_OUTER_BOUND ( 'NONE', #21, .T. ) ;
#97 = ORIENTED_EDGE ( 'NONE', *, *, #332, .F. ) ;
#98 = SECURITY_CLASSIFICATION_LEVEL ( 'unclassified' ) ;
#99 = VERTEX_POINT ( 'NONE', #205 ) ;
#100 = APPROVAL_PERSON_ORGANIZATION ( #320, #269, #45 ) ;
#101 = APPROVAL_STATUS ( 'not_yet_approved' ) ;
#102 = ORIENTED_EDGE ( 'NONE', *, *, #136, .T. ) ;
#103 = AXIS2_PLACEMENT_3D ( 'NONE', #227, #173, #279 ) ;
#104 = SHAPE_DEFINITION_REPRESENTATION ( #327, #9 ) ;
#105 = CARTESIAN_POINT ( 'NONE',  ( 2.513866563967056016E-13, -8.817456953860941711E-15, 72.00000000000000000 ) ) ;
#106 = ORIENTED_EDGE ( 'NONE', *, *, #114, .F. ) ;
#107 = CARTESIAN_POINT ( 'NONE',  ( 2.513866563967056016E-13, -8.817456953860941711E-15, 72.00000000000000000 ) ) ;
#108 = VECTOR ( 'NONE', #232, 1000.000000000000000 ) ;
#109 = DIRECTION ( 'NONE',  ( -3.491481338843133355E-15, 1.224646799147353207E-16, -1.000000000000000000 ) ) ;
#110 = EDGE_CURVE ( 'NONE', #39, #226, #42, .T. ) ;
#111 = CARTESIAN_POINT ( 'NONE',  ( 7.681258945454893382E-14, 3.749399456654640188E-32, 22.00000000000000000 ) ) ;
#112 = DIRECTION ( 'NONE',  ( -3.491481338843133355E-15, 1.224646799147353207E-16, -1.000000000000000000 ) ) ;
#113 = AXIS2_PLACEMENT_3D ( 'NONE', #194, #115, #217 ) ;
#114 = EDGE_CURVE ( 'NONE', #282, #209, #79, .T. ) ;
#115 = DIRECTION ( 'NONE',  ( -3.491481338843133355E-15, 1.224646799147353207E-16, -1.000000000000000000 ) ) ;
#116 = ORIENTED_EDGE ( 'NONE', *, *, #28, .F. ) ;
#117 = CIRCLE ( 'NONE', #165, 4.500000000000000888 ) ;
#118 = DIRECTION ( 'NONE',  ( -3.491481338843133355E-15, 1.224646799147353207E-16, -1.000000000000000000 ) ) ;
#119 = CIRCLE ( 'NONE', #257, 5.000000000000000000 ) ;
#120 = EDGE_LOOP ( 'NONE', ( #341, #347 ) ) ;
#121 = ORIENTED_EDGE ( 'NONE', *, *, #110, .T. ) ;
#122 = EDGE_CURVE ( 'NONE', #275, #10, #318, .T. ) ;
#123 = CARTESIAN_POINT ( 'NONE',  ( 1.638390759904901506E-13, -5.000000000000002665, 22.00000000000000000 ) ) ;
#124 = ORIENTED_EDGE ( 'NONE', *, *, #214, .T. ) ;
#125 = PERSON_AND_ORGANIZATION_ROLE ( 'creator' ) ;
#126 = CARTESIAN_POINT ( 'NONE',  ( 6.123233995736744589E-16, -5.000000000000000000, -6.123233995736786990E-16 ) ) ;
#127 = APPROVAL_STATUS ( 'not_yet_approved' ) ;
#128 = ORIENTED_EDGE ( 'NONE', *, *, #136, .F. ) ;
#129 = CC_DESIGN_APPROVAL ( #235, ( #297 ) ) ;
#130 = DATE_AND_TIME ( #233, #296 ) ;
#131 = DIRECTION ( 'NONE',  ( -3.491481338843133355E-15, 1.224646799147353207E-16, -1.000000000000000000 ) ) ;
#132 = PERSON_AND_ORGANIZATION ( #339, #250 ) ;
#133 = CARTESIAN_POINT ( 'NONE',  ( 0.000000000000000000, 0.000000000000000000, 0.000000000000000000 ) ) ;
#134 = CARTESIAN_POINT ( 'NONE',  ( -2.041121027307184423E-30, 7.119948065315121647E-32, -5.846002968996216498E-16 ) ) ;
#135 = CARTESIAN_POINT ( 'NONE',  ( 6.982962677686255864E-16, -2.435834570415086921E-17, 0.1999999999999996780 ) ) ;
#136 = EDGE_CURVE ( 'NONE', #148, #10, #354, .T. ) ;
#137 = CARTESIAN_POINT ( 'NONE',  ( 6.982962677686255864E-16, -2.435834570415086921E-17, 0.1999999999999996780 ) ) ;
#138 = AXIS2_PLACEMENT_3D ( 'NONE', #135, #295, #139 ) ;
#139 = DIRECTION ( 'NONE',  ( -4.237045877651918877E-31, -1.000000000000000000, -1.192622389734054877E-16 ) ) ;
#140 = VECTOR ( 'NONE', #204, 1000.000000000000000 ) ;
#141 = MECHANICAL_CONTEXT ( 'NONE', #52, 'mechanical' ) ;
#142 = VERTEX_POINT ( 'NONE', #60 ) ;
#143 = APPROVAL_STATUS ( 'not_yet_approved' ) ;
#144 = ORIENTED_EDGE ( 'NONE', *, *, #214, .F. ) ;
#145 = AXIS2_PLACEMENT_3D ( 'NONE', #59, #168, #273 ) ;
#146 =( NAMED_UNIT ( * ) SI_UNIT ( $, .STERADIAN. ) SOLID_ANGLE_UNIT ( ) );
#147 = EDGE_CURVE ( 'NONE', #209, #10, #218, .T. ) ;
#148 = VERTEX_POINT ( 'NONE', #53 ) ;
#149 = LINE ( 'NONE', #31, #62 ) ;
#150 = EDGE_LOOP ( 'NONE', ( #254, #8, #211, #12 ) ) ;
#151 = AXIS2_PLACEMENT_3D ( 'NONE', #177, #345, #38 ) ;
#152 = PERSON_AND_ORGANIZATION_ROLE ( 'design_supplier' ) ;
#153 = CARTESIAN_POINT ( 'NONE',  ( 2.137915722948478778E-30, 4.999999999999999112, 6.123233995736765296E-16 ) ) ;
#154 = ORIENTED_EDGE ( 'NONE', *, *, #199, .F. ) ;
#155 = DIRECTION ( 'NONE',  ( -3.491481338843133355E-15, 1.224646799147353207E-16, -1.000000000000000000 ) ) ;
#156 = AXIS2_PLACEMENT_3D ( 'NONE', #83, #192, #57 ) ;
#157 = EDGE_LOOP ( 'NONE', ( #65, #264, #266, #128 ) ) ;
#158 = EDGE_CURVE ( 'NONE', #64, #228, #263, .T. ) ;
#159 = ORIENTED_EDGE ( 'NONE', *, *, #122, .T. ) ;
#160 = EDGE_CURVE ( 'NONE', #226, #172, #212, .T. ) ;
#161 = CARTESIAN_POINT ( 'NONE',  ( 7.681258945454893382E-14, -2.694222958124176809E-15, 22.00000000000000000 ) ) ;
#162 = LOCAL_TIME ( 7, 26, 8.000000000000000000, #16 ) ;
#163 = DIRECTION ( 'NONE',  ( 0.000000000000000000, 1.000000000000000000, 0.000000000000000000 ) ) ;
#164 = DIRECTION ( 'NONE',  ( 0.000000000000000000, 1.000000000000000000, 0.000000000000000000 ) ) ;
#165 = AXIS2_PLACEMENT_3D ( 'NONE', #107, #300, #246 ) ;
#166 = AXIS2_PLACEMENT_3D ( 'NONE', #133, #359, #362 ) ;
#167 = CARTESIAN_POINT ( 'NONE',  ( 2.137915722948479128E-30, 5.000000000000000000, 6.123233995736766282E-16 ) ) ;
#168 = DIRECTION ( 'NONE',  ( -3.491481338843133355E-15, 1.224646799147353207E-16, -1.000000000000000000 ) ) ;
#169 = CARTESIAN_POINT ( 'NONE',  ( 2.496409157272839907E-13, -8.756224613903572559E-15, 71.49999999999998579 ) ) ;
#170 = DIRECTION ( 'NONE',  ( 4.275831445896958607E-31, 1.000000000000000000, 1.224646799147353207E-16 ) ) ;
#171 = PERSON_AND_ORGANIZATION ( #339, #250 ) ;
#172 = VERTEX_POINT ( 'NONE', #215 ) ;
#173 = DIRECTION ( 'NONE',  ( 0.000000000000000000, 0.000000000000000000, 1.000000000000000000 ) ) ;
#174 = EDGE_CURVE ( 'NONE', #228, #64, #247, .T. ) ;
#175 = PRODUCT_DEFINITION_FORMATION_WITH_SPECIFIED_SOURCE ( 'ANY', '', #287, .NOT_KNOWN. ) ;
#176 = VECTOR ( 'NONE', #46, 1000.000000000000000 ) ;
#177 = CARTESIAN_POINT ( 'NONE',  ( 0.000000000000000000, 0.000000000000000000, 0.000000000000000000 ) ) ;
#178 = ORIENTED_EDGE ( 'NONE', *, *, #355, .F. ) ;
#179 = EDGE_CURVE ( 'NONE', #99, #209, #58, .T. ) ;
#180 = CARTESIAN_POINT ( 'NONE',  ( 6.982962677686255864E-16, -2.435834570415086921E-17, 0.1999999999999996780 ) ) ;
#181 = APPROVAL_PERSON_ORGANIZATION ( #14, #253, #187 ) ;
#182 = CC_DESIGN_SECURITY_CLASSIFICATION ( #206, ( #175 ) ) ;
#183 = CALENDAR_DATE ( 2023, 3, 4 ) ;
#184 = CARTESIAN_POINT ( 'NONE',  ( 6.982962677686235156E-16, -5.000000000000000000, 0.1999999999999990952 ) ) ;
#185 = PERSON_AND_ORGANIZATION ( #339, #250 ) ;
#186 = CARTESIAN_POINT ( 'NONE',  ( 2.502532391268576917E-13, -5.000000000000007994, 71.49999999999998579 ) ) ;
#187 = APPROVAL_ROLE ( '' ) ;
#188 = AXIS2_PLACEMENT_3D ( 'NONE', #82, #112, #219 ) ;
#189 = FACE_OUTER_BOUND ( 'NONE', #278, .T. ) ;
#190 = PRODUCT_RELATED_PRODUCT_CATEGORY ( 'detail', '', ( #287 ) ) ;
#191 = DIRECTION ( 'NONE',  ( -4.252335473556634944E-31, -1.000000000000000000, -1.217917285207545432E-16 ) ) ;
#192 = DIRECTION ( 'NONE',  ( -3.491481338843133355E-15, 1.224646799147353207E-16, -1.000000000000000000 ) ) ;
#193 = ADVANCED_FACE ( 'NONE', ( #334 ), #84, .T. ) ;
#194 = CARTESIAN_POINT ( 'NONE',  ( 7.681258945454893382E-14, -2.694222958124176809E-15, 22.00000000000000000 ) ) ;
#195 = FACE_OUTER_BOUND ( 'NONE', #251, .T. ) ;
#196 = LOCAL_TIME ( 7, 26, 8.000000000000000000, #4 ) ;
#197 = PLANE ( 'NONE',  #49 ) ;
#198 = DIRECTION ( 'NONE',  ( 3.491481338843133355E-15, -1.217917285207545432E-16, 1.000000000000000000 ) ) ;
#199 = EDGE_CURVE ( 'NONE', #148, #282, #307, .T. ) ;
#200 = CARTESIAN_POINT ( 'NONE',  ( 6.982962677686255864E-16, -2.435834570415086921E-17, 0.1999999999999996780 ) ) ;
#201 = PERSON_AND_ORGANIZATION ( #339, #250 ) ;
#202 = ORIENTED_EDGE ( 'NONE', *, *, #298, .T. ) ;
#203 =( LENGTH_UNIT ( ) NAMED_UNIT ( * ) SI_UNIT ( .MILLI., .METRE. ) );
#204 = DIRECTION ( 'NONE',  ( 2.555445736705808485E-15, 0.7071067811865493491, 0.7071067811865456854 ) ) ;
#205 = CARTESIAN_POINT ( 'NONE',  ( 7.681258945454893382E-14, 4.999999999999997335, 22.00000000000000000 ) ) ;
#206 = SECURITY_CLASSIFICATION ( '', '', #98 ) ;
#207 = AXIS2_PLACEMENT_3D ( 'NONE', #340, #36, #314 ) ;
#208 = DIRECTION ( 'NONE',  ( 0.000000000000000000, 1.000000000000000000, 0.000000000000000000 ) ) ;
#209 = VERTEX_POINT ( 'NONE', #294 ) ;
#210 = ADVANCED_FACE ( 'NONE', ( #268 ), #343, .T. ) ;
#211 = ORIENTED_EDGE ( 'NONE', *, *, #179, .T. ) ;
#212 = CIRCLE ( 'NONE', #50, 4.999999999999999112 ) ;
#213 = CYLINDRICAL_SURFACE ( 'NONE', #156, 5.000000000000000000 ) ;
#214 = EDGE_CURVE ( 'NONE', #172, #228, #149, .T. ) ;
#215 = CARTESIAN_POINT ( 'NONE',  ( 1.638390759904901001E-13, -5.000000000000007994, 71.49999999999998579 ) ) ;
#216 = CC_DESIGN_APPROVAL ( #269, ( #206 ) ) ;
#217 = DIRECTION ( 'NONE',  ( 0.000000000000000000, 1.000000000000000000, 0.000000000000000000 ) ) ;
#218 = CIRCLE ( 'NONE', #88, 5.000000000000000000 ) ;
#219 = DIRECTION ( 'NONE',  ( 4.275831445896958607E-31, 1.000000000000000000, 1.224646799147353207E-16 ) ) ;
#220 = CLOSED_SHELL ( 'NONE', ( #276, #193, #312, #210, #338, #328 ) ) ;
#221 = CARTESIAN_POINT ( 'NONE',  ( 0.000000000000000000, 0.000000000000000000, 0.000000000000000000 ) ) ;
#222 = APPLICATION_PROTOCOL_DEFINITION ( 'international standard', 'config_control_design', 1994, #52 ) ;
#223 = AXIS2_PLACEMENT_3D ( 'NONE', #111, #87, #30 ) ;
#224 = ORIENTED_EDGE ( 'NONE', *, *, #44, .T. ) ;
#225 = AXIS2_PLACEMENT_3D ( 'NONE', #54, #55, #164 ) ;
#226 = VERTEX_POINT ( 'NONE', #337 ) ;
#227 = CARTESIAN_POINT ( 'NONE',  ( 0.000000000000000000, 0.000000000000000000, 0.000000000000000000 ) ) ;
#228 = VERTEX_POINT ( 'NONE', #123 ) ;
#229 = EDGE_LOOP ( 'NONE', ( #280, #159, #202, #284 ) ) ;
#230 = AXIS2_PLACEMENT_3D ( 'NONE', #293, #249, #33 ) ;
#231 = PLANE ( 'NONE',  #43 ) ;
#232 = DIRECTION ( 'NONE',  ( -3.491481338843133355E-15, 1.224646799147353207E-16, -1.000000000000000000 ) ) ;
#233 = CALENDAR_DATE ( 2023, 3, 4 ) ;
#234 = CARTESIAN_POINT ( 'NONE',  ( 3.936776626073245598E-14, -5.000000000000000000, 0.1999999999999990952 ) ) ;
#235 = APPROVAL ( #143, 'UNSPECIFIED' ) ;
#236 = ADVANCED_FACE ( 'NONE', ( #66 ), #231, .T. ) ;
#237 = AXIS2_PLACEMENT_3D ( 'NONE', #180, #317, #281 ) ;
#238 = APPROVAL_DATE_TIME ( #76, #235 ) ;
#239 = ORIENTED_EDGE ( 'NONE', *, *, #35, .F. ) ;
#240 = VECTOR ( 'NONE', #330, 1000.000000000000000 ) ;
#241 = APPROVAL_DATE_TIME ( #73, #253 ) ;
#242 = ORIENTED_EDGE ( 'NONE', *, *, #75, .F. ) ;
#243 = ORIENTED_EDGE ( 'NONE', *, *, #91, .T. ) ;
#244 = VECTOR ( 'NONE', #272, 1000.000000000000000 ) ;
#245 = DIRECTION ( 'NONE',  ( 3.491481338843133355E-15, -1.217917285207545432E-16, 1.000000000000000000 ) ) ;
#246 = DIRECTION ( 'NONE',  ( 0.000000000000000000, 1.000000000000000000, 0.000000000000000000 ) ) ;
#247 = CIRCLE ( 'NONE', #290, 5.000000000000000000 ) ;
#248 = CIRCLE ( 'NONE', #323, 4.799999999999998934 ) ;
#249 = DIRECTION ( 'NONE',  ( -3.491481338843133355E-15, 1.224646799147353207E-16, -1.000000000000000000 ) ) ;
#250 = ORGANIZATION ( 'UNSPECIFIED', 'UNSPECIFIED', '' ) ;
#251 = EDGE_LOOP ( 'NONE', ( #243, #224, #93, #37 ) ) ;
#252 = ORIENTED_EDGE ( 'NONE', *, *, #174, .F. ) ;
#253 = APPROVAL ( #127, 'UNSPECIFIED' ) ;
#254 = ORIENTED_EDGE ( 'NONE', *, *, #122, .F. ) ;
#255 = ADVANCED_FACE ( 'NONE', ( #96 ), #356, .T. ) ;
#256 = FACE_OUTER_BOUND ( 'NONE', #150, .T. ) ;
#257 = AXIS2_PLACEMENT_3D ( 'NONE', #67, #155, #208 ) ;
#258 = ADVANCED_FACE ( 'NONE', ( #256 ), #213, .T. ) ;
#259 = CARTESIAN_POINT ( 'NONE',  ( 2.496409157272839907E-13, 4.999999999999990230, 71.49999999999998579 ) ) ;
#260 = PERSON_AND_ORGANIZATION_ROLE ( 'creator' ) ;
#261 = DIRECTION ( 'NONE',  ( -4.252335473556634944E-31, -1.000000000000000000, -1.217917285207545432E-16 ) ) ;
#262 = LINE ( 'NONE', #186, #240 ) ;
#263 = CIRCLE ( 'NONE', #113, 5.000000000000000000 ) ;
#264 = ORIENTED_EDGE ( 'NONE', *, *, #114, .T. ) ;
#265 = CIRCLE ( 'NONE', #94, 4.500000000000000888 ) ;
#266 = ORIENTED_EDGE ( 'NONE', *, *, #298, .F. ) ;
#267 = CC_DESIGN_APPROVAL ( #253, ( #175 ) ) ;
#268 = FACE_OUTER_BOUND ( 'NONE', #5, .T. ) ;
#269 = APPROVAL ( #101, 'UNSPECIFIED' ) ;
#270 = ADVANCED_FACE ( 'NONE', ( #305 ), #299, .T. ) ;
#271 = DESIGN_CONTEXT ( 'detailed design', #274, 'design' ) ;
#272 = DIRECTION ( 'NONE',  ( -3.491481338843133355E-15, 1.224646799147353207E-16, -1.000000000000000000 ) ) ;
#273 = DIRECTION ( 'NONE',  ( 0.000000000000000000, 1.000000000000000000, 0.000000000000000000 ) ) ;
#274 = APPLICATION_CONTEXT ( 'configuration controlled 3d designs of mechanical parts and assemblies' ) ;
#275 = VERTEX_POINT ( 'NONE', #363 ) ;
#276 = ADVANCED_FACE ( 'NONE', ( #195 ), #335, .T. ) ;
#277 = CC_DESIGN_PERSON_AND_ORGANIZATION_ASSIGNMENT ( #353, #260, ( #175 ) ) ;
#278 = EDGE_LOOP ( 'NONE', ( #311, #321, #121, #97 ) ) ;
#279 = DIRECTION ( 'NONE',  ( 1.000000000000000000, 0.000000000000000000, 0.000000000000000000 ) ) ;
#280 = ORIENTED_EDGE ( 'NONE', *, *, #355, .T. ) ;
#281 = DIRECTION ( 'NONE',  ( -4.237045877651918877E-31, -1.000000000000000000, -1.192622389734054877E-16 ) ) ;
#282 = VERTEX_POINT ( 'NONE', #24 ) ;
#283 = CC_DESIGN_PERSON_AND_ORGANIZATION_ASSIGNMENT ( #185, #125, ( #297 ) ) ;
#284 = ORIENTED_EDGE ( 'NONE', *, *, #179, .F. ) ;
#285 = COORDINATED_UNIVERSAL_TIME_OFFSET ( 1, 0, .AHEAD. ) ;
#286 = FACE_OUTER_BOUND ( 'NONE', #229, .T. ) ;
#287 = PRODUCT ( '367631', '367631', '', ( #141 ) ) ;
#288 = CALENDAR_DATE ( 2023, 3, 4 ) ;
#289 = ORIENTED_EDGE ( 'NONE', *, *, #332, .T. ) ;
#290 = AXIS2_PLACEMENT_3D ( 'NONE', #161, #109, #333 ) ;
#291 = CARTESIAN_POINT ( 'NONE',  ( 7.681258945454893382E-14, 4.999999999999997335, 22.00000000000000000 ) ) ;
#292 = VECTOR ( 'NONE', #361, 1000.000000000000000 ) ;
#293 = CARTESIAN_POINT ( 'NONE',  ( 2.496409157272839907E-13, -8.756224613903572559E-15, 71.49999999999998579 ) ) ;
#294 = CARTESIAN_POINT ( 'NONE',  ( 3.875544286115878655E-14, 5.000000000000000000, 0.2000000000000002887 ) ) ;
#295 = DIRECTION ( 'NONE',  ( 3.491481338843133355E-15, -1.217917285207545432E-16, 1.000000000000000000 ) ) ;
#296 = LOCAL_TIME ( 7, 26, 8.000000000000000000, #349 ) ;
#297 = PRODUCT_DEFINITION ( 'UNKNOWN', '', #175, #271 ) ;
#298 = EDGE_CURVE ( 'NONE', #10, #209, #346, .T. ) ;
#299 = CONICAL_SURFACE ( 'NONE', #138, 5.000000000000000000, 0.7853981633974510546 ) ;
#300 = DIRECTION ( 'NONE',  ( -3.491481338843133355E-15, 1.224646799147353207E-16, -1.000000000000000000 ) ) ;
#301 = DIRECTION ( 'NONE',  ( -3.491481338843133355E-15, 1.224646799147353207E-16, -1.000000000000000000 ) ) ;
#302 = EDGE_CURVE ( 'NONE', #142, #39, #117, .T. ) ;
#303 = CARTESIAN_POINT ( 'NONE',  ( 2.513866563967056016E-13, 3.374459510989167028E-32, 72.00000000000000000 ) ) ;
#304 = DIRECTION ( 'NONE',  ( 4.275831445896958607E-31, 1.000000000000000000, 1.224646799147353207E-16 ) ) ;
#305 = FACE_OUTER_BOUND ( 'NONE', #157, .T. ) ;
#306 = CC_DESIGN_DATE_AND_TIME_ASSIGNMENT ( #360, #48, ( #206 ) ) ;
#307 = CIRCLE ( 'NONE', #29, 4.799999999999998934 ) ;
#308 = PERSON_AND_ORGANIZATION_ROLE ( 'design_owner' ) ;
#309 = ORIENTED_EDGE ( 'NONE', *, *, #160, .T. ) ;
#310 = ORIENTED_EDGE ( 'NONE', *, *, #35, .T. ) ;
#311 = ORIENTED_EDGE ( 'NONE', *, *, #44, .F. ) ;
#312 = ADVANCED_FACE ( 'NONE', ( #1 ), #25, .F. ) ;
#313 = EDGE_LOOP ( 'NONE', ( #350, #315 ) ) ;
#314 = DIRECTION ( 'NONE',  ( 0.000000000000000000, 1.000000000000000000, 0.000000000000000000 ) ) ;
#315 = ORIENTED_EDGE ( 'NONE', *, *, #302, .F. ) ;
#316 = ADVANCED_FACE ( 'NONE', ( #331 ), #61, .T. ) ;
#317 = DIRECTION ( 'NONE',  ( 3.491481338843133355E-15, -1.217917285207545432E-16, 1.000000000000000000 ) ) ;
#318 = LINE ( 'NONE', #126, #108 ) ;
#319 = CC_DESIGN_PERSON_AND_ORGANIZATION_ASSIGNMENT ( #132, #358, ( #206 ) ) ;
#320 = PERSON_AND_ORGANIZATION ( #339, #250 ) ;
#321 = ORIENTED_EDGE ( 'NONE', *, *, #302, .T. ) ;
#322 =( GEOMETRIC_REPRESENTATION_CONTEXT ( 3 ) GLOBAL_UNCERTAINTY_ASSIGNED_CONTEXT ( ( #95 ) ) GLOBAL_UNIT_ASSIGNED_CONTEXT ( ( #203, #92, #146 ) ) REPRESENTATION_CONTEXT ( 'NONE', 'WORKASPACE' ) );
#323 = AXIS2_PLACEMENT_3D ( 'NONE', #134, #74, #261 ) ;
#324 = COORDINATED_UNIVERSAL_TIME_OFFSET ( 1, 0, .AHEAD. ) ;
#325 = CC_DESIGN_PERSON_AND_ORGANIZATION_ASSIGNMENT ( #41, #152, ( #175 ) ) ;
#326 = DIRECTION ( 'NONE',  ( -3.491481338843133355E-15, 1.224646799147353207E-16, -1.000000000000000000 ) ) ;
#327 = PRODUCT_DEFINITION_SHAPE ( 'NONE', 'NONE',  #297 ) ;
#328 = ADVANCED_FACE ( 'NONE', ( #85 ), #197, .F. ) ;
#329 = CALENDAR_DATE ( 2023, 3, 4 ) ;
#330 = DIRECTION ( 'NONE',  ( -2.382254525458756124E-15, -0.7071067811865363595, -0.7071067811865586750 ) ) ;
#331 = FACE_OUTER_BOUND ( 'NONE', #344, .T. ) ;
#332 = EDGE_CURVE ( 'NONE', #172, #226, #90, .T. ) ;
#333 = DIRECTION ( 'NONE',  ( 0.000000000000000000, 1.000000000000000000, 0.000000000000000000 ) ) ;
#334 = FACE_OUTER_BOUND ( 'NONE', #32, .T. ) ;
#335 = CONICAL_SURFACE ( 'NONE', #225, 4.999999999999999112, 0.7853981633974327359 ) ;
#336 = DIRECTION ( 'NONE',  ( -3.491481338843133355E-15, 1.224646799147353207E-16, -1.000000000000000000 ) ) ;
#337 = CARTESIAN_POINT ( 'NONE',  ( 2.496409157272839907E-13, 4.999999999999990230, 71.49999999999998579 ) ) ;
#338 = ADVANCED_FACE ( 'NONE', ( #189 ), #27, .T. ) ;
#339 = PERSON ( 'UNSPECIFIED', 'UNSPECIFIED', 'UNSPECIFIED', ('UNSPECIFIED'), ('UNSPECIFIED'), ('UNSPECIFIED') ) ;
#340 = CARTESIAN_POINT ( 'NONE',  ( 7.681258945454893382E-14, -2.694222958124176809E-15, 22.00000000000000000 ) ) ;
#341 = ORIENTED_EDGE ( 'NONE', *, *, #158, .T. ) ;
#342 = CC_DESIGN_DATE_AND_TIME_ASSIGNMENT ( #69, #20, ( #297 ) ) ;
#343 = CYLINDRICAL_SURFACE ( 'NONE', #151, 4.999999999999999112 ) ;
#344 = EDGE_LOOP ( 'NONE', ( #154, #239 ) ) ;
#345 = DIRECTION ( 'NONE',  ( -3.491481338843133355E-15, 1.224646799147353207E-16, -1.000000000000000000 ) ) ;
#346 = CIRCLE ( 'NONE', #68, 5.000000000000000000 ) ;
#347 = ORIENTED_EDGE ( 'NONE', *, *, #174, .T. ) ;
#348 = DIRECTION ( 'NONE',  ( 3.491481338843133355E-15, -1.224646799147353207E-16, 1.000000000000000000 ) ) ;
#349 = COORDINATED_UNIVERSAL_TIME_OFFSET ( 1, 0, .AHEAD. ) ;
#350 = ORIENTED_EDGE ( 'NONE', *, *, #91, .F. ) ;
#351 = MANIFOLD_SOLID_BREP ( 'Corps-Déplacer/Copier1[2]', #71 ) ;
#352 = MANIFOLD_SOLID_BREP ( 'Corps-Déplacer/Copier1[1]', #220 ) ;
#353 = PERSON_AND_ORGANIZATION ( #339, #250 ) ;
#354 = LINE ( 'NONE', #184, #176 ) ;
#355 = EDGE_CURVE ( 'NONE', #99, #275, #6, .T. ) ;
#356 = CONICAL_SURFACE ( 'NONE', #237, 5.000000000000000000, 0.7853981633974510546 ) ;
#357 = APPROVAL_PERSON_ORGANIZATION ( #171, #235, #7 ) ;
#358 = PERSON_AND_ORGANIZATION_ROLE ( 'classification_officer' ) ;
#359 = DIRECTION ( 'NONE',  ( -3.491481338843133355E-15, 1.224646799147353207E-16, -1.000000000000000000 ) ) ;
#360 = DATE_AND_TIME ( #329, #18 ) ;
#361 = DIRECTION ( 'NONE',  ( -2.468850131082303603E-15, 0.7071067811865365815, -0.7071067811865584529 ) ) ;
#362 = DIRECTION ( 'NONE',  ( 4.275831445896958607E-31, 1.000000000000000000, 1.224646799147353207E-16 ) ) ;
#363 = CARTESIAN_POINT ( 'NONE',  ( 3.936776626073243705E-14, -5.000000000000003553, 22.00000000000000000 ) ) ;
ENDSEC;
END-ISO-10303-21;
