ISO-10303-21;
HEADER;
FILE_DESCRIPTION (( 'STEP AP203' ),
    '1' );
FILE_NAME ('367628.step',
    '2023-03-31T11:57:09',
    ( '' ),
    ( '' ),
    'SwSTEP 2.0',
    'SolidWorks 2022',
    '' );
FILE_SCHEMA (( 'CONFIG_CONTROL_DESIGN' ));
ENDSEC;

DATA;
#1 = APPROVAL_STATUS ( 'not_yet_approved' ) ;
#2 = ORIENTED_EDGE ( 'NONE', *, *, #361, .F. ) ;
#3 = AXIS2_PLACEMENT_3D ( 'NONE', #106, #129, #249 ) ;
#4 = APPROVAL_STATUS ( 'not_yet_approved' ) ;
#5 = EDGE_CURVE ( 'NONE', #52, #114, #317, .T. ) ;
#6 = ORIENTED_EDGE ( 'NONE', *, *, #134, .T. ) ;
#7 = ADVANCED_FACE ( 'NONE', ( #68 ), #315, .T. ) ;
#8 = PERSON_AND_ORGANIZATION ( #138, #287 ) ;
#9 = ORIENTED_EDGE ( 'NONE', *, *, #191, .F. ) ;
#10 = SHAPE_DEFINITION_REPRESENTATION ( #182, #174 ) ;
#11 = EDGE_LOOP ( 'NONE', ( #163, #261, #165, #227 ) ) ;
#12 = DIRECTION ( 'NONE',  ( -3.491481338843133355E-15, 1.224646799147353207E-16, -1.000000000000000000 ) ) ;
#13 = DIRECTION ( 'NONE',  ( 4.275831445896958607E-31, 1.000000000000000000, 1.224646799147353207E-16 ) ) ;
#14 = DIRECTION ( 'NONE',  ( 0.000000000000000000, 1.000000000000000000, 0.000000000000000000 ) ) ;
#15 = CIRCLE ( 'NONE', #278, 7.799999999999998046 ) ;
#16 = AXIS2_PLACEMENT_3D ( 'NONE', #206, #46, #351 ) ;
#17 = DIRECTION ( 'NONE',  ( 2.555445736705803357E-15, 0.7071067811865507924, 0.7071067811865441310 ) ) ;
#18 = DIRECTION ( 'NONE',  ( 3.491481338843133355E-15, -1.224646799147353207E-16, 1.000000000000000000 ) ) ;
#19 = FACE_OUTER_BOUND ( 'NONE', #230, .T. ) ;
#20 = AXIS2_PLACEMENT_3D ( 'NONE', #245, #357, #302 ) ;
#21 = CARTESIAN_POINT ( 'NONE',  ( 6.982962677686210504E-16, -8.000000000000000000, 0.1999999999999983735 ) ) ;
#22 = EDGE_CURVE ( 'NONE', #223, #281, #147, .T. ) ;
#23 = DIRECTION ( 'NONE',  ( -4.212971753347078429E-31, -1.000000000000000000, -1.219727444046192488E-16 ) ) ;
#24 = CYLINDRICAL_SURFACE ( 'NONE', #279, 8.000000000000000000 ) ;
#25 = CIRCLE ( 'NONE', #202, 8.000000000000001776 ) ;
#26 = APPROVAL_DATE_TIME ( #164, #75 ) ;
#27 = EDGE_CURVE ( 'NONE', #332, #199, #349, .T. ) ;
#28 = PERSON_AND_ORGANIZATION ( #138, #287 ) ;
#29 = ORIENTED_EDGE ( 'NONE', *, *, #271, .T. ) ;
#30 = ORIENTED_EDGE ( 'NONE', *, *, #62, .T. ) ;
#31 = COORDINATED_UNIVERSAL_TIME_OFFSET ( 1, 0, .AHEAD. ) ;
#32 = ORIENTED_EDGE ( 'NONE', *, *, #27, .F. ) ;
#33 = CONICAL_SURFACE ( 'NONE', #77, 8.000000000000000000, 0.7853981633974531640 ) ;
#34 = PERSON_AND_ORGANIZATION_ROLE ( 'design_owner' ) ;
#35 = ORIENTED_EDGE ( 'NONE', *, *, #5, .T. ) ;
#36 = ORIENTED_EDGE ( 'NONE', *, *, #322, .F. ) ;
#37 = DIRECTION ( 'NONE',  ( 3.491481338843133355E-15, -1.217917285207545432E-16, 1.000000000000000000 ) ) ;
#38 = CIRCLE ( 'NONE', #173, 8.000000000000000000 ) ;
#39 = EDGE_CURVE ( 'NONE', #162, #332, #94, .T. ) ;
#40 = CIRCLE ( 'NONE', #253, 8.000000000000001776 ) ;
#41 = CARTESIAN_POINT ( 'NONE',  ( 3.491481338843133355E-13, -1.224646799147353217E-14, 100.0000000000000000 ) ) ;
#42 = CYLINDRICAL_SURFACE ( 'NONE', #312, 8.000000000000000000 ) ;
#43 = CARTESIAN_POINT ( 'NONE',  ( 6.982962677686244031E-16, -2.435834570415082915E-17, 0.1999999999999993727 ) ) ;
#44 = DIRECTION ( 'NONE',  ( 0.000000000000000000, 1.000000000000000000, 0.000000000000000000 ) ) ;
#45 = DIRECTION ( 'NONE',  ( 0.000000000000000000, 1.000000000000000000, 0.000000000000000000 ) ) ;
#46 = DIRECTION ( 'NONE',  ( -3.491481338843133355E-15, 1.224646799147353207E-16, -1.000000000000000000 ) ) ;
#47 = CIRCLE ( 'NONE', #3, 7.799999999999998046 ) ;
#48 = CARTESIAN_POINT ( 'NONE',  ( 3.491481338843133355E-13, -1.224646799147353217E-14, 100.0000000000000000 ) ) ;
#49 = CARTESIAN_POINT ( 'NONE',  ( 3.474023932148917752E-13, 7.999999999999988454, 99.50000000000000000 ) ) ;
#50 = DIRECTION ( 'NONE',  ( 4.275831445896958607E-31, 1.000000000000000000, 1.224646799147353207E-16 ) ) ;
#51 = LOCAL_TIME ( 13, 57, 9.000000000000000000, #195 ) ;
#52 = VERTEX_POINT ( 'NONE', #292 ) ;
#53 =( NAMED_UNIT ( * ) PLANE_ANGLE_UNIT ( ) SI_UNIT ( $, .RADIAN. ) );
#54 = EDGE_LOOP ( 'NONE', ( #2, #86 ) ) ;
#55 = DATE_TIME_ROLE ( 'creation_date' ) ;
#56 = EDGE_CURVE ( 'NONE', #290, #215, #15, .T. ) ;
#57 = VERTEX_POINT ( 'NONE', #344 ) ;
#58 = ORIENTED_EDGE ( 'NONE', *, *, #200, .T. ) ;
#59 = ORIENTED_EDGE ( 'NONE', *, *, #191, .T. ) ;
#60 = APPROVAL ( #1, 'UNSPECIFIED' ) ;
#61 = CARTESIAN_POINT ( 'NONE',  ( 9.797174393178792131E-16, -8.000000000000000000, -9.797174393178859184E-16 ) ) ;
#62 = EDGE_CURVE ( 'NONE', #332, #281, #38, .T. ) ;
#63 = CC_DESIGN_PERSON_AND_ORGANIZATION_ASSIGNMENT ( #8, #307, ( #276 ) ) ;
#64 = CARTESIAN_POINT ( 'NONE',  ( 3.474023932148917752E-13, -1.218523565151616460E-14, 99.50000000000000000 ) ) ;
#65 = CONICAL_SURFACE ( 'NONE', #272, 8.000000000000000000, 0.7853981633974482790 ) ;
#66 = AXIS2_PLACEMENT_3D ( 'NONE', #103, #126, #45 ) ;
#67 = DIRECTION ( 'NONE',  ( 0.000000000000000000, 1.000000000000000000, 0.000000000000000000 ) ) ;
#68 = FACE_OUTER_BOUND ( 'NONE', #144, .T. ) ;
#69 = CARTESIAN_POINT ( 'NONE',  ( 3.420665156717566885E-30, 8.000000000000000000, 9.797174393178825657E-16 ) ) ;
#70 = MANIFOLD_SOLID_BREP ( 'Corps-Déplacer/Copier1[1]', #107 ) ;
#71 = LOCAL_TIME ( 13, 57, 9.000000000000000000, #192 ) ;
#72 = DIRECTION ( 'NONE',  ( 0.000000000000000000, 1.000000000000000000, 0.000000000000000000 ) ) ;
#73 = CARTESIAN_POINT ( 'NONE',  ( 3.491481338843133355E-13, 5.624099184981947966E-32, 100.0000000000000000 ) ) ;
#74 = DIRECTION ( 'NONE',  ( -3.491481338843133355E-15, 1.224646799147353207E-16, -1.000000000000000000 ) ) ;
#75 = APPROVAL ( #331, 'UNSPECIFIED' ) ;
#76 = CONICAL_SURFACE ( 'NONE', #89, 8.000000000000000000, 0.7853981633974482790 ) ;
#77 = AXIS2_PLACEMENT_3D ( 'NONE', #325, #275, #23 ) ;
#78 = FACE_OUTER_BOUND ( 'NONE', #171, .T. ) ;
#79 = DIRECTION ( 'NONE',  ( -3.491481338843133355E-15, 1.224646799147353207E-16, -1.000000000000000000 ) ) ;
#80 = PERSON_AND_ORGANIZATION_ROLE ( 'creator' ) ;
#81 = ORIENTED_EDGE ( 'NONE', *, *, #326, .T. ) ;
#82 = VECTOR ( 'NONE', #17, 1000.000000000000114 ) ;
#83 = APPROVAL_ROLE ( '' ) ;
#84 = EDGE_LOOP ( 'NONE', ( #205, #305, #255, #36 ) ) ;
#85 = CALENDAR_DATE ( 2023, 31, 3 ) ;
#86 = ORIENTED_EDGE ( 'NONE', *, *, #56, .F. ) ;
#87 =( LENGTH_UNIT ( ) NAMED_UNIT ( * ) SI_UNIT ( .MILLI., .METRE. ) );
#88 = EDGE_LOOP ( 'NONE', ( #283, #58 ) ) ;
#89 = AXIS2_PLACEMENT_3D ( 'NONE', #208, #123, #14 ) ;
#90 = DATE_AND_TIME ( #259, #51 ) ;
#91 = CIRCLE ( 'NONE', #181, 7.500000000000000000 ) ;
#92 = EDGE_LOOP ( 'NONE', ( #221, #6, #228, #196 ) ) ;
#93 = PLANE ( 'NONE',  #16 ) ;
#94 = LINE ( 'NONE', #178, #352 ) ;
#95 = DIRECTION ( 'NONE',  ( -3.491481338843133355E-15, 1.224646799147353207E-16, -1.000000000000000000 ) ) ;
#96 = CC_DESIGN_APPROVAL ( #60, ( #276 ) ) ;
#97 = ADVANCED_FACE ( 'NONE', ( #347 ), #42, .T. ) ;
#98 = UNCERTAINTY_MEASURE_WITH_UNIT (LENGTH_MEASURE( 1.000000000000000082E-05 ), #87, 'distance_accuracy_value', 'NONE');
#99 = DIRECTION ( 'NONE',  ( -3.491481338843133355E-15, 1.224646799147353207E-16, -1.000000000000000000 ) ) ;
#100 = DIRECTION ( 'NONE',  ( 3.491481338843133355E-15, -1.217917285207545432E-16, 1.000000000000000000 ) ) ;
#101 = LINE ( 'NONE', #359, #237 ) ;
#102 = AXIS2_PLACEMENT_3D ( 'NONE', #239, #175, #172 ) ;
#103 = CARTESIAN_POINT ( 'NONE',  ( 1.256933281983528008E-13, -4.408728476930470856E-15, 36.00000000000000000 ) ) ;
#104 = DESIGN_CONTEXT ( 'detailed design', #242, 'design' ) ;
#105 = CYLINDRICAL_SURFACE ( 'NONE', #20, 8.000000000000000000 ) ;
#106 = CARTESIAN_POINT ( 'NONE',  ( -3.316821669374174731E-30, 1.156991560613707363E-31, -9.499754824618853288E-16 ) ) ;
#107 = CLOSED_SHELL ( 'NONE', ( #148, #97, #216, #234, #167, #350 ) ) ;
#108 = CARTESIAN_POINT ( 'NONE',  ( 0.000000000000000000, 0.000000000000000000, 0.000000000000000000 ) ) ;
#109 = PRODUCT_RELATED_PRODUCT_CATEGORY ( 'detail', '', ( #156 ) ) ;
#110 = ORIENTED_EDGE ( 'NONE', *, *, #326, .F. ) ;
#111 = ORIENTED_EDGE ( 'NONE', *, *, #125, .T. ) ;
#112 = EDGE_LOOP ( 'NONE', ( #260, #363, #334, #137 ) ) ;
#113 = MECHANICAL_CONTEXT ( 'NONE', #316, 'mechanical' ) ;
#114 = VERTEX_POINT ( 'NONE', #294 ) ;
#115 = VECTOR ( 'NONE', #74, 1000.000000000000000 ) ;
#116 = DIRECTION ( 'NONE',  ( 0.000000000000000000, 1.000000000000000000, 0.000000000000000000 ) ) ;
#117 = CARTESIAN_POINT ( 'NONE',  ( 1.678013707086510420E-15, 8.000000000000000000, 0.2000000000000003442 ) ) ;
#118 = DIRECTION ( 'NONE',  ( -3.491481338843133355E-15, 1.224646799147353207E-16, -1.000000000000000000 ) ) ;
#119 = CONICAL_SURFACE ( 'NONE', #266, 8.000000000000000000, 0.7853981633974531640 ) ;
#120 = CARTESIAN_POINT ( 'NONE',  ( -3.316821669374174731E-30, 1.156991560613707363E-31, -9.499754824618853288E-16 ) ) ;
#121 = PRODUCT_DEFINITION_FORMATION_WITH_SPECIFIED_SOURCE ( 'ANY', '', #156, .NOT_KNOWN. ) ;
#122 = AXIS2_PLACEMENT_3D ( 'NONE', #133, #282, #204 ) ;
#123 = DIRECTION ( 'NONE',  ( -3.491481338843133355E-15, 1.224646799147353207E-16, -1.000000000000000000 ) ) ;
#124 = DIRECTION ( 'NONE',  ( -3.491481338843133355E-15, 1.224646799147353207E-16, -1.000000000000000000 ) ) ;
#125 = EDGE_CURVE ( 'NONE', #57, #114, #150, .T. ) ;
#126 = DIRECTION ( 'NONE',  ( -3.491481338843133355E-15, 1.224646799147353207E-16, -1.000000000000000000 ) ) ;
#127 = DIRECTION ( 'NONE',  ( 0.000000000000000000, 1.000000000000000000, 0.000000000000000000 ) ) ;
#128 = ADVANCED_FACE ( 'NONE', ( #297 ), #119, .T. ) ;
#129 = DIRECTION ( 'NONE',  ( 3.491481338843133355E-15, -1.217917285207545432E-16, 1.000000000000000000 ) ) ;
#130 = DIRECTION ( 'NONE',  ( 4.275831445896958607E-31, 1.000000000000000000, 1.224646799147353207E-16 ) ) ;
#131 = AXIS2_PLACEMENT_3D ( 'NONE', #318, #177, #153 ) ;
#132 = LOCAL_TIME ( 13, 57, 9.000000000000000000, #304 ) ;
#133 = CARTESIAN_POINT ( 'NONE',  ( 0.000000000000000000, 0.000000000000000000, 0.000000000000000000 ) ) ;
#134 = EDGE_CURVE ( 'NONE', #290, #114, #149, .T. ) ;
#135 =( NAMED_UNIT ( * ) SI_UNIT ( $, .STERADIAN. ) SOLID_ANGLE_UNIT ( ) );
#136 = ORIENTED_EDGE ( 'NONE', *, *, #200, .F. ) ;
#137 = ORIENTED_EDGE ( 'NONE', *, *, #176, .F. ) ;
#138 = PERSON ( 'UNSPECIFIED', 'UNSPECIFIED', 'UNSPECIFIED', ('UNSPECIFIED'), ('UNSPECIFIED'), ('UNSPECIFIED') ) ;
#139 = CLOSED_SHELL ( 'NONE', ( #356, #238, #243, #7, #128, #211 ) ) ;
#140 = AXIS2_PLACEMENT_3D ( 'NONE', #323, #79, #72 ) ;
#141 = CALENDAR_DATE ( 2023, 31, 3 ) ;
#142 = ORIENTED_EDGE ( 'NONE', *, *, #284, .F. ) ;
#143 = APPROVAL_ROLE ( '' ) ;
#144 = EDGE_LOOP ( 'NONE', ( #110, #311 ) ) ;
#145 = ORIENTED_EDGE ( 'NONE', *, *, #319, .F. ) ;
#146 = DIRECTION ( 'NONE',  ( -2.382254525458716681E-15, -0.7071067811865474617, -0.7071067811865476838 ) ) ;
#147 = LINE ( 'NONE', #263, #179 ) ;
#148 = ADVANCED_FACE ( 'NONE', ( #235 ), #76, .T. ) ;
#149 = LINE ( 'NONE', #117, #82 ) ;
#150 = CIRCLE ( 'NONE', #244, 8.000000000000000000 ) ;
#151 = DIRECTION ( 'NONE',  ( -4.212971753347078429E-31, -1.000000000000000000, -1.219727444046192488E-16 ) ) ;
#152 = APPROVAL_PERSON_ORGANIZATION ( #169, #197, #143 ) ;
#153 = DIRECTION ( 'NONE',  ( -4.212971753347078429E-31, -1.000000000000000000, -1.219727444046192488E-16 ) ) ;
#154 = LINE ( 'NONE', #21, #203 ) ;
#155 = CC_DESIGN_PERSON_AND_ORGANIZATION_ASSIGNMENT ( #161, #333, ( #121 ) ) ;
#156 = PRODUCT ( '367628', '367628', '', ( #113 ) ) ;
#157 = DIRECTION ( 'NONE',  ( 0.000000000000000000, 1.000000000000000000, 0.000000000000000000 ) ) ;
#158 = DIRECTION ( 'NONE',  ( 0.000000000000000000, 1.000000000000000000, 0.000000000000000000 ) ) ;
#159 = CARTESIAN_POINT ( 'NONE',  ( -6.633643338748349461E-30, -7.799999999999998046, -1.899950964923770658E-15 ) ) ;
#160 = FACE_OUTER_BOUND ( 'NONE', #201, .T. ) ;
#161 = PERSON_AND_ORGANIZATION ( #138, #287 ) ;
#162 = VERTEX_POINT ( 'NONE', #236 ) ;
#163 = ORIENTED_EDGE ( 'NONE', *, *, #39, .F. ) ;
#164 = DATE_AND_TIME ( #229, #132 ) ;
#165 = ORIENTED_EDGE ( 'NONE', *, *, #22, .T. ) ;
#166 = AXIS2_PLACEMENT_3D ( 'NONE', #41, #264, #67 ) ;
#167 = ADVANCED_FACE ( 'NONE', ( #233 ), #65, .T. ) ;
#168 = CC_DESIGN_APPROVAL ( #75, ( #121 ) ) ;
#169 = PERSON_AND_ORGANIZATION ( #138, #287 ) ;
#170 = VERTEX_POINT ( 'NONE', #345 ) ;
#171 = EDGE_LOOP ( 'NONE', ( #81, #336, #111, #340 ) ) ;
#172 = DIRECTION ( 'NONE',  ( -4.275831445896958607E-31, -1.000000000000000000, -1.224646799147353207E-16 ) ) ;
#173 = AXIS2_PLACEMENT_3D ( 'NONE', #207, #99, #320 ) ;
#174 = ADVANCED_BREP_SHAPE_REPRESENTATION ( '367628', ( #70, #189, #122 ), #288 ) ;
#175 = DIRECTION ( 'NONE',  ( 3.491481338843133355E-15, -1.224646799147353207E-16, 1.000000000000000000 ) ) ;
#176 = EDGE_CURVE ( 'NONE', #114, #57, #358, .T. ) ;
#177 = DIRECTION ( 'NONE',  ( 3.491481338843133355E-15, -1.217917285207545432E-16, 1.000000000000000000 ) ) ;
#178 = CARTESIAN_POINT ( 'NONE',  ( 3.483821106542096563E-13, -8.000000000000012434, 99.50000000000000000 ) ) ;
#179 = VECTOR ( 'NONE', #265, 1000.000000000000000 ) ;
#180 = DIRECTION ( 'NONE',  ( -3.491481338843133355E-15, 1.224646799147353207E-16, -1.000000000000000000 ) ) ;
#181 = AXIS2_PLACEMENT_3D ( 'NONE', #48, #250, #158 ) ;
#182 = PRODUCT_DEFINITION_SHAPE ( 'NONE', 'NONE',  #276 ) ;
#183 = CARTESIAN_POINT ( 'NONE',  ( 1.256933281983528008E-13, -4.408728476930470856E-15, 36.00000000000000000 ) ) ;
#184 = DIRECTION ( 'NONE',  ( -3.491481338843133355E-15, 1.224646799147353207E-16, -1.000000000000000000 ) ) ;
#185 = CARTESIAN_POINT ( 'NONE',  ( 1.256933281983528008E-13, 5.999039130647424958E-32, 36.00000000000000000 ) ) ;
#186 = CC_DESIGN_PERSON_AND_ORGANIZATION_ASSIGNMENT ( #310, #34, ( #156 ) ) ;
#187 = CIRCLE ( 'NONE', #293, 8.000000000000000000 ) ;
#188 = DIRECTION ( 'NONE',  ( -4.275831445896958607E-31, -1.000000000000000000, -1.224646799147353207E-16 ) ) ;
#189 = MANIFOLD_SOLID_BREP ( 'Corps-Déplacer/Copier1[2]', #139 ) ;
#190 = DIRECTION ( 'NONE',  ( 2.468850131082253116E-15, -0.7071067811865511255, 0.7071067811865440200 ) ) ;
#191 = EDGE_CURVE ( 'NONE', #223, #162, #341, .T. ) ;
#192 = COORDINATED_UNIVERSAL_TIME_OFFSET ( 1, 0, .AHEAD. ) ;
#193 = EDGE_LOOP ( 'NONE', ( #32, #30, #338, #136 ) ) ;
#194 = SECURITY_CLASSIFICATION ( '', '', #339 ) ;
#195 = COORDINATED_UNIVERSAL_TIME_OFFSET ( 1, 0, .AHEAD. ) ;
#196 = ORIENTED_EDGE ( 'NONE', *, *, #328, .F. ) ;
#197 = APPROVAL ( #4, 'UNSPECIFIED' ) ;
#198 = DATE_AND_TIME ( #85, #71 ) ;
#199 = VERTEX_POINT ( 'NONE', #269 ) ;
#200 = EDGE_CURVE ( 'NONE', #199, #170, #25, .T. ) ;
#201 = EDGE_LOOP ( 'NONE', ( #145, #29, #35, #308 ) ) ;
#202 = AXIS2_PLACEMENT_3D ( 'NONE', #295, #240, #116 ) ;
#203 = VECTOR ( 'NONE', #190, 1000.000000000000000 ) ;
#204 = DIRECTION ( 'NONE',  ( 1.000000000000000000, 0.000000000000000000, 0.000000000000000000 ) ) ;
#205 = ORIENTED_EDGE ( 'NONE', *, *, #247, .T. ) ;
#206 = CARTESIAN_POINT ( 'NONE',  ( -1.710332578358783092E-30, 5.999039130647430431E-32, -4.898587196589412829E-16 ) ) ;
#207 = CARTESIAN_POINT ( 'NONE',  ( 3.474023932148917752E-13, -1.218523565151616460E-14, 99.50000000000000000 ) ) ;
#208 = CARTESIAN_POINT ( 'NONE',  ( 3.474023932148917752E-13, -1.218523565151616460E-14, 99.50000000000000000 ) ) ;
#209 = CARTESIAN_POINT ( 'NONE',  ( 0.000000000000000000, 0.000000000000000000, 0.000000000000000000 ) ) ;
#210 = DIRECTION ( 'NONE',  ( 3.491481338843133355E-15, -1.217917285207545432E-16, 1.000000000000000000 ) ) ;
#211 = ADVANCED_FACE ( 'NONE', ( #343 ), #93, .T. ) ;
#212 = CARTESIAN_POINT ( 'NONE',  ( 6.417552967237856336E-14, -8.000000000000007105, 36.00000000000000000 ) ) ;
#213 = LOCAL_TIME ( 13, 57, 9.000000000000000000, #31 ) ;
#214 = PLANE ( 'NONE',  #246 ) ;
#215 = VERTEX_POINT ( 'NONE', #159 ) ;
#216 = ADVANCED_FACE ( 'NONE', ( #277 ), #299, .F. ) ;
#217 = FACE_OUTER_BOUND ( 'NONE', #92, .T. ) ;
#218 = CARTESIAN_POINT ( 'NONE',  ( 3.491481338843133355E-13, 7.499999999999987566, 100.0000000000000000 ) ) ;
#219 = CARTESIAN_POINT ( 'NONE',  ( 3.420665156717566885E-30, 8.000000000000000000, 9.797174393178825657E-16 ) ) ;
#220 = PERSON_AND_ORGANIZATION ( #138, #287 ) ;
#221 = ORIENTED_EDGE ( 'NONE', *, *, #361, .T. ) ;
#222 = CALENDAR_DATE ( 2023, 31, 3 ) ;
#223 = VERTEX_POINT ( 'NONE', #218 ) ;
#224 = VECTOR ( 'NONE', #180, 1000.000000000000000 ) ;
#225 = CC_DESIGN_APPROVAL ( #197, ( #194 ) ) ;
#226 = DATE_AND_TIME ( #222, #267 ) ;
#227 = ORIENTED_EDGE ( 'NONE', *, *, #62, .F. ) ;
#228 = ORIENTED_EDGE ( 'NONE', *, *, #125, .F. ) ;
#229 = CALENDAR_DATE ( 2023, 31, 3 ) ;
#230 = EDGE_LOOP ( 'NONE', ( #9, #142 ) ) ;
#231 = APPROVAL_PERSON_ORGANIZATION ( #220, #60, #83 ) ;
#232 = APPROVAL_DATE_TIME ( #90, #197 ) ;
#233 = FACE_OUTER_BOUND ( 'NONE', #11, .T. ) ;
#234 = ADVANCED_FACE ( 'NONE', ( #270 ), #301, .T. ) ;
#235 = FACE_OUTER_BOUND ( 'NONE', #314, .T. ) ;
#236 = CARTESIAN_POINT ( 'NONE',  ( 3.492243648189417717E-13, -7.500000000000011546, 100.0000000000000000 ) ) ;
#237 = VECTOR ( 'NONE', #184, 1000.000000000000000 ) ;
#238 = ADVANCED_FACE ( 'NONE', ( #78 ), #24, .T. ) ;
#239 = CARTESIAN_POINT ( 'NONE',  ( 1.256933281983528008E-13, 5.999039130647424958E-32, 36.00000000000000000 ) ) ;
#240 = DIRECTION ( 'NONE',  ( -3.491481338843133355E-15, 1.224646799147353207E-16, -1.000000000000000000 ) ) ;
#241 = DIRECTION ( 'NONE',  ( -3.491481338843133355E-15, 1.224646799147353207E-16, -1.000000000000000000 ) ) ;
#242 = APPLICATION_CONTEXT ( 'configuration controlled 3d designs of mechanical parts and assemblies' ) ;
#243 = ADVANCED_FACE ( 'NONE', ( #160 ), #105, .T. ) ;
#244 = AXIS2_PLACEMENT_3D ( 'NONE', #268, #100, #296 ) ;
#245 = CARTESIAN_POINT ( 'NONE',  ( 0.000000000000000000, 0.000000000000000000, 0.000000000000000000 ) ) ;
#246 = AXIS2_PLACEMENT_3D ( 'NONE', #73, #248, #355 ) ;
#247 = EDGE_CURVE ( 'NONE', #281, #332, #187, .T. ) ;
#248 = DIRECTION ( 'NONE',  ( -3.491481338843133355E-15, 1.224646799147353207E-16, -1.000000000000000000 ) ) ;
#249 = DIRECTION ( 'NONE',  ( -4.252335473556634944E-31, -1.000000000000000000, -1.217917285207545679E-16 ) ) ;
#250 = DIRECTION ( 'NONE',  ( -3.491481338843133355E-15, 1.224646799147353207E-16, -1.000000000000000000 ) ) ;
#251 = VECTOR ( 'NONE', #95, 1000.000000000000000 ) ;
#252 = EDGE_CURVE ( 'NONE', #170, #199, #353, .T. ) ;
#253 = AXIS2_PLACEMENT_3D ( 'NONE', #183, #241, #157 ) ;
#254 = PERSON_AND_ORGANIZATION ( #138, #287 ) ;
#255 = ORIENTED_EDGE ( 'NONE', *, *, #252, .F. ) ;
#256 = VERTEX_POINT ( 'NONE', #212 ) ;
#257 = CIRCLE ( 'NONE', #140, 8.000000000000001776 ) ;
#258 = DATE_TIME_ROLE ( 'classification_date' ) ;
#259 = CALENDAR_DATE ( 2023, 31, 3 ) ;
#260 = ORIENTED_EDGE ( 'NONE', *, *, #134, .F. ) ;
#261 = ORIENTED_EDGE ( 'NONE', *, *, #284, .T. ) ;
#262 = CC_DESIGN_SECURITY_CLASSIFICATION ( #194, ( #121 ) ) ;
#263 = CARTESIAN_POINT ( 'NONE',  ( 3.474023932148917752E-13, 7.999999999999988454, 99.50000000000000000 ) ) ;
#264 = DIRECTION ( 'NONE',  ( -3.491481338843133355E-15, 1.224646799147353207E-16, -1.000000000000000000 ) ) ;
#265 = DIRECTION ( 'NONE',  ( -2.468850131082265344E-15, 0.7071067811865476838, -0.7071067811865474617 ) ) ;
#266 = AXIS2_PLACEMENT_3D ( 'NONE', #43, #210, #151 ) ;
#267 = LOCAL_TIME ( 13, 57, 9.000000000000000000, #313 ) ;
#268 = CARTESIAN_POINT ( 'NONE',  ( 6.982962677686244031E-16, -2.435834570415082915E-17, 0.1999999999999993727 ) ) ;
#269 = CARTESIAN_POINT ( 'NONE',  ( 2.375275781459401944E-13, -8.000000000000007105, 36.00000000000000000 ) ) ;
#270 = FACE_OUTER_BOUND ( 'NONE', #193, .T. ) ;
#271 = EDGE_CURVE ( 'NONE', #256, #52, #40, .T. ) ;
#272 = AXIS2_PLACEMENT_3D ( 'NONE', #64, #118, #44 ) ;
#273 = CARTESIAN_POINT ( 'NONE',  ( 1.316619105210726094E-15, 7.799999999999998046, -4.622231866529366047E-30 ) ) ;
#274 = CC_DESIGN_PERSON_AND_ORGANIZATION_ASSIGNMENT ( #360, #280, ( #194 ) ) ;
#275 = DIRECTION ( 'NONE',  ( 3.491481338843133355E-15, -1.217917285207545432E-16, 1.000000000000000000 ) ) ;
#276 = PRODUCT_DEFINITION ( 'UNKNOWN', '', #121, #104 ) ;
#277 = FACE_OUTER_BOUND ( 'NONE', #88, .T. ) ;
#278 = AXIS2_PLACEMENT_3D ( 'NONE', #120, #37, #321 ) ;
#279 = AXIS2_PLACEMENT_3D ( 'NONE', #108, #303, #130 ) ;
#280 = PERSON_AND_ORGANIZATION_ROLE ( 'classification_officer' ) ;
#281 = VERTEX_POINT ( 'NONE', #49 ) ;
#282 = DIRECTION ( 'NONE',  ( 0.000000000000000000, 0.000000000000000000, 1.000000000000000000 ) ) ;
#283 = ORIENTED_EDGE ( 'NONE', *, *, #252, .T. ) ;
#284 = EDGE_CURVE ( 'NONE', #162, #223, #91, .T. ) ;
#285 = APPROVAL_ROLE ( '' ) ;
#286 = ORIENTED_EDGE ( 'NONE', *, *, #22, .F. ) ;
#287 = ORGANIZATION ( 'UNSPECIFIED', 'UNSPECIFIED', '' ) ;
#288 =( GEOMETRIC_REPRESENTATION_CONTEXT ( 3 ) GLOBAL_UNCERTAINTY_ASSIGNED_CONTEXT ( ( #98 ) ) GLOBAL_UNIT_ASSIGNED_CONTEXT ( ( #87, #53, #135 ) ) REPRESENTATION_CONTEXT ( 'NONE', 'WORKASPACE' ) );
#289 = APPLICATION_PROTOCOL_DEFINITION ( 'international standard', 'config_control_design', 1994, #242 ) ;
#290 = VERTEX_POINT ( 'NONE', #273 ) ;
#291 = ORIENTED_EDGE ( 'NONE', *, *, #247, .F. ) ;
#292 = CARTESIAN_POINT ( 'NONE',  ( 1.256933281983528008E-13, 7.999999999999996447, 36.00000000000000000 ) ) ;
#293 = AXIS2_PLACEMENT_3D ( 'NONE', #354, #124, #127 ) ;
#294 = CARTESIAN_POINT ( 'NONE',  ( 6.319581223306073266E-14, 8.000000000000000000, 0.2000000000000003442 ) ) ;
#295 = CARTESIAN_POINT ( 'NONE',  ( 1.256933281983528008E-13, -4.408728476930470856E-15, 36.00000000000000000 ) ) ;
#296 = DIRECTION ( 'NONE',  ( -4.212971753347078429E-31, -1.000000000000000000, -1.219727444046192488E-16 ) ) ;
#297 = FACE_OUTER_BOUND ( 'NONE', #112, .T. ) ;
#298 = CARTESIAN_POINT ( 'NONE',  ( 2.375275781459401439E-13, -8.000000000000012434, 99.50000000000000000 ) ) ;
#299 = PLANE ( 'NONE',  #346 ) ;
#300 = CC_DESIGN_DATE_AND_TIME_ASSIGNMENT ( #198, #55, ( #276 ) ) ;
#301 = CYLINDRICAL_SURFACE ( 'NONE', #342, 8.000000000000000000 ) ;
#302 = DIRECTION ( 'NONE',  ( 4.275831445896958607E-31, 1.000000000000000000, 1.224646799147353207E-16 ) ) ;
#303 = DIRECTION ( 'NONE',  ( -3.491481338843133355E-15, 1.224646799147353207E-16, -1.000000000000000000 ) ) ;
#304 = COORDINATED_UNIVERSAL_TIME_OFFSET ( 1, 0, .AHEAD. ) ;
#305 = ORIENTED_EDGE ( 'NONE', *, *, #27, .T. ) ;
#306 = ORIENTED_EDGE ( 'NONE', *, *, #39, .T. ) ;
#307 = PERSON_AND_ORGANIZATION_ROLE ( 'creator' ) ;
#308 = ORIENTED_EDGE ( 'NONE', *, *, #176, .T. ) ;
#309 = CC_DESIGN_PERSON_AND_ORGANIZATION_ASSIGNMENT ( #28, #80, ( #121 ) ) ;
#310 = PERSON_AND_ORGANIZATION ( #138, #287 ) ;
#311 = ORIENTED_EDGE ( 'NONE', *, *, #271, .F. ) ;
#312 = AXIS2_PLACEMENT_3D ( 'NONE', #209, #12, #13 ) ;
#313 = COORDINATED_UNIVERSAL_TIME_OFFSET ( 1, 0, .AHEAD. ) ;
#314 = EDGE_LOOP ( 'NONE', ( #59, #306, #291, #286 ) ) ;
#315 = PLANE ( 'NONE',  #102 ) ;
#316 = APPLICATION_CONTEXT ( 'configuration controlled 3d designs of mechanical parts and assemblies' ) ;
#317 = LINE ( 'NONE', #69, #224 ) ;
#318 = CARTESIAN_POINT ( 'NONE',  ( 6.982962677686244031E-16, -2.435834570415082915E-17, 0.1999999999999993727 ) ) ;
#319 = EDGE_CURVE ( 'NONE', #256, #57, #101, .T. ) ;
#320 = DIRECTION ( 'NONE',  ( 0.000000000000000000, 1.000000000000000000, 0.000000000000000000 ) ) ;
#321 = DIRECTION ( 'NONE',  ( -4.252335473556634944E-31, -1.000000000000000000, -1.217917285207545679E-16 ) ) ;
#322 = EDGE_CURVE ( 'NONE', #281, #170, #324, .T. ) ;
#323 = CARTESIAN_POINT ( 'NONE',  ( 1.256933281983528008E-13, -4.408728476930470856E-15, 36.00000000000000000 ) ) ;
#324 = LINE ( 'NONE', #219, #115 ) ;
#325 = CARTESIAN_POINT ( 'NONE',  ( 6.982962677686244031E-16, -2.435834570415082915E-17, 0.1999999999999993727 ) ) ;
#326 = EDGE_CURVE ( 'NONE', #52, #256, #257, .T. ) ;
#327 = APPROVAL_PERSON_ORGANIZATION ( #254, #75, #285 ) ;
#328 = EDGE_CURVE ( 'NONE', #215, #57, #154, .T. ) ;
#329 = DIRECTION ( 'NONE',  ( -3.491481338843133355E-15, 1.224646799147353207E-16, -1.000000000000000000 ) ) ;
#330 = CARTESIAN_POINT ( 'NONE',  ( 0.000000000000000000, 0.000000000000000000, 0.000000000000000000 ) ) ;
#331 = APPROVAL_STATUS ( 'not_yet_approved' ) ;
#332 = VERTEX_POINT ( 'NONE', #298 ) ;
#333 = PERSON_AND_ORGANIZATION_ROLE ( 'design_supplier' ) ;
#334 = ORIENTED_EDGE ( 'NONE', *, *, #328, .T. ) ;
#335 = APPROVAL_DATE_TIME ( #226, #60 ) ;
#336 = ORIENTED_EDGE ( 'NONE', *, *, #319, .T. ) ;
#337 = APPLICATION_PROTOCOL_DEFINITION ( 'international standard', 'config_control_design', 1994, #316 ) ;
#338 = ORIENTED_EDGE ( 'NONE', *, *, #322, .T. ) ;
#339 = SECURITY_CLASSIFICATION_LEVEL ( 'unclassified' ) ;
#340 = ORIENTED_EDGE ( 'NONE', *, *, #5, .F. ) ;
#341 = CIRCLE ( 'NONE', #166, 7.500000000000000000 ) ;
#342 = AXIS2_PLACEMENT_3D ( 'NONE', #330, #329, #50 ) ;
#343 = FACE_OUTER_BOUND ( 'NONE', #54, .T. ) ;
#344 = CARTESIAN_POINT ( 'NONE',  ( 6.417552967237858860E-14, -8.000000000000000000, 0.1999999999999983735 ) ) ;
#345 = CARTESIAN_POINT ( 'NONE',  ( 1.256933281983528008E-13, 7.999999999999996447, 36.00000000000000000 ) ) ;
#346 = AXIS2_PLACEMENT_3D ( 'NONE', #185, #18, #188 ) ;
#347 = FACE_OUTER_BOUND ( 'NONE', #84, .T. ) ;
#348 = CC_DESIGN_DATE_AND_TIME_ASSIGNMENT ( #362, #258, ( #194 ) ) ;
#349 = LINE ( 'NONE', #61, #251 ) ;
#350 = ADVANCED_FACE ( 'NONE', ( #19 ), #214, .F. ) ;
#351 = DIRECTION ( 'NONE',  ( 4.275831445896958607E-31, 1.000000000000000000, 1.224646799147353207E-16 ) ) ;
#352 = VECTOR ( 'NONE', #146, 1000.000000000000000 ) ;
#353 = CIRCLE ( 'NONE', #66, 8.000000000000001776 ) ;
#354 = CARTESIAN_POINT ( 'NONE',  ( 3.474023932148917752E-13, -1.218523565151616460E-14, 99.50000000000000000 ) ) ;
#355 = DIRECTION ( 'NONE',  ( 4.275831445896958607E-31, 1.000000000000000000, 1.224646799147353207E-16 ) ) ;
#356 = ADVANCED_FACE ( 'NONE', ( #217 ), #33, .T. ) ;
#357 = DIRECTION ( 'NONE',  ( -3.491481338843133355E-15, 1.224646799147353207E-16, -1.000000000000000000 ) ) ;
#358 = CIRCLE ( 'NONE', #131, 8.000000000000000000 ) ;
#359 = CARTESIAN_POINT ( 'NONE',  ( 9.797174393178792131E-16, -8.000000000000000000, -9.797174393178859184E-16 ) ) ;
#360 = PERSON_AND_ORGANIZATION ( #138, #287 ) ;
#361 = EDGE_CURVE ( 'NONE', #215, #290, #47, .T. ) ;
#362 = DATE_AND_TIME ( #141, #213 ) ;
#363 = ORIENTED_EDGE ( 'NONE', *, *, #56, .T. ) ;
ENDSEC;
END-ISO-10303-21;
