ISO-10303-21;
HEADER;
FILE_DESCRIPTION (( 'STEP AP203' ),
    '1' );
FILE_NAME ('367627.step',
    '2023-04-03T05:26:07',
    ( '' ),
    ( '' ),
    'SwSTEP 2.0',
    'SolidWorks 2022',
    '' );
FILE_SCHEMA (( 'CONFIG_CONTROL_DESIGN' ));
ENDSEC;

DATA;
#1 = DIRECTION ( 'NONE',  ( -4.252335473556634944E-31, -1.000000000000000000, -1.217917285207545679E-16 ) ) ;
#2 = ADVANCED_FACE ( 'NONE', ( #243 ), #310, .T. ) ;
#3 = CALENDAR_DATE ( 2023, 3, 4 ) ;
#4 = CONICAL_SURFACE ( 'NONE', #104, 8.000000000000001776, 0.7853981633974500554 ) ;
#5 = DIRECTION ( 'NONE',  ( 0.000000000000000000, 1.000000000000000000, 0.000000000000000000 ) ) ;
#6 = PLANE ( 'NONE',  #27 ) ;
#7 = AXIS2_PLACEMENT_3D ( 'NONE', #85, #254, #65 ) ;
#8 = MECHANICAL_CONTEXT ( 'NONE', #267, 'mechanical' ) ;
#9 = CARTESIAN_POINT ( 'NONE',  ( 1.316619105210726094E-15, 7.799999999999998046, -4.622231866529366047E-30 ) ) ;
#10 = EDGE_CURVE ( 'NONE', #325, #124, #25, .T. ) ;
#11 = PERSON ( 'UNSPECIFIED', 'UNSPECIFIED', 'UNSPECIFIED', ('UNSPECIFIED'), ('UNSPECIFIED'), ('UNSPECIFIED') ) ;
#12 = SECURITY_CLASSIFICATION ( '', '', #137 ) ;
#13 = APPROVAL_STATUS ( 'not_yet_approved' ) ;
#14 = CARTESIAN_POINT ( 'NONE',  ( 1.256933281983528008E-13, 5.999039130647424958E-32, 36.00000000000000000 ) ) ;
#15 = CARTESIAN_POINT ( 'NONE',  ( 3.474023932148917752E-13, -1.218523565151616460E-14, 99.50000000000000000 ) ) ;
#16 = FACE_OUTER_BOUND ( 'NONE', #211, .T. ) ;
#17 = ADVANCED_FACE ( 'NONE', ( #273 ), #106, .T. ) ;
#18 = CIRCLE ( 'NONE', #214, 8.000000000000001776 ) ;
#19 = ORIENTED_EDGE ( 'NONE', *, *, #289, .F. ) ;
#20 = ORGANIZATION ( 'UNSPECIFIED', 'UNSPECIFIED', '' ) ;
#21 = ORIENTED_EDGE ( 'NONE', *, *, #308, .T. ) ;
#22 = VERTEX_POINT ( 'NONE', #358 ) ;
#23 = EDGE_LOOP ( 'NONE', ( #96, #220, #66, #19 ) ) ;
#24 = ORIENTED_EDGE ( 'NONE', *, *, #244, .T. ) ;
#25 = LINE ( 'NONE', #328, #345 ) ;
#26 = DIRECTION ( 'NONE',  ( 0.000000000000000000, 1.000000000000000000, 0.000000000000000000 ) ) ;
#27 = AXIS2_PLACEMENT_3D ( 'NONE', #14, #115, #285 ) ;
#28 = COORDINATED_UNIVERSAL_TIME_OFFSET ( 1, 0, .AHEAD. ) ;
#29 = DIRECTION ( 'NONE',  ( -3.491481338843133355E-15, 1.224646799147353207E-16, -1.000000000000000000 ) ) ;
#30 = DIRECTION ( 'NONE',  ( 2.555445736705803357E-15, 0.7071067811865507924, 0.7071067811865441310 ) ) ;
#31 = CALENDAR_DATE ( 2023, 3, 4 ) ;
#32 =( NAMED_UNIT ( * ) SI_UNIT ( $, .STERADIAN. ) SOLID_ANGLE_UNIT ( ) );
#33 = CARTESIAN_POINT ( 'NONE',  ( 0.000000000000000000, 0.000000000000000000, 0.000000000000000000 ) ) ;
#34 = APPLICATION_PROTOCOL_DEFINITION ( 'international standard', 'config_control_design', 1994, #267 ) ;
#35 = DIRECTION ( 'NONE',  ( -3.491481338843133355E-15, 1.224646799147353207E-16, -1.000000000000000000 ) ) ;
#36 = EDGE_CURVE ( 'NONE', #240, #158, #329, .T. ) ;
#37 = CONICAL_SURFACE ( 'NONE', #241, 8.000000000000001776, 0.7853981633974500554 ) ;
#38 = CARTESIAN_POINT ( 'NONE',  ( 6.982962677686244031E-16, -2.435834570415082915E-17, 0.1999999999999993727 ) ) ;
#39 = DIRECTION ( 'NONE',  ( -3.491481338843133355E-15, 1.224646799147353207E-16, -1.000000000000000000 ) ) ;
#40 = EDGE_CURVE ( 'NONE', #124, #181, #331, .T. ) ;
#41 = DIRECTION ( 'NONE',  ( 2.468850131082253116E-15, -0.7071067811865511255, 0.7071067811865440200 ) ) ;
#42 = DIRECTION ( 'NONE',  ( 3.491481338843133355E-15, -1.224646799147353207E-16, 1.000000000000000000 ) ) ;
#43 = EDGE_LOOP ( 'NONE', ( #90, #72, #47, #71 ) ) ;
#44 = PRODUCT_DEFINITION_FORMATION_WITH_SPECIFIED_SOURCE ( 'ANY', '', #213, .NOT_KNOWN. ) ;
#45 = ORIENTED_EDGE ( 'NONE', *, *, #36, .T. ) ;
#46 = EDGE_CURVE ( 'NONE', #251, #127, #272, .T. ) ;
#47 = ORIENTED_EDGE ( 'NONE', *, *, #46, .T. ) ;
#48 = VERTEX_POINT ( 'NONE', #78 ) ;
#49 = AXIS2_PLACEMENT_3D ( 'NONE', #257, #143, #238 ) ;
#50 = CARTESIAN_POINT ( 'NONE',  ( 1.256933281983528008E-13, 7.999999999999996447, 36.00000000000000000 ) ) ;
#51 = DIRECTION ( 'NONE',  ( -3.491481338843133355E-15, 1.224646799147353207E-16, -1.000000000000000000 ) ) ;
#52 = ORIENTED_EDGE ( 'NONE', *, *, #330, .F. ) ;
#53 = LOCAL_TIME ( 7, 26, 7.000000000000000000, #163 ) ;
#54 = EDGE_LOOP ( 'NONE', ( #99, #356, #152, #130 ) ) ;
#55 = CIRCLE ( 'NONE', #119, 8.000000000000001776 ) ;
#56 = DATE_AND_TIME ( #134, #323 ) ;
#57 = PERSON_AND_ORGANIZATION ( #11, #20 ) ;
#58 = CARTESIAN_POINT ( 'NONE',  ( 0.000000000000000000, 0.000000000000000000, 0.000000000000000000 ) ) ;
#59 =( LENGTH_UNIT ( ) NAMED_UNIT ( * ) SI_UNIT ( .MILLI., .METRE. ) );
#60 = CYLINDRICAL_SURFACE ( 'NONE', #192, 8.000000000000000000 ) ;
#61 = EDGE_CURVE ( 'NONE', #251, #124, #18, .T. ) ;
#62 = DIRECTION ( 'NONE',  ( 3.491481338843133355E-15, -1.217917285207545432E-16, 1.000000000000000000 ) ) ;
#63 = DIRECTION ( 'NONE',  ( -3.491481338843133355E-15, 1.224646799147353207E-16, -1.000000000000000000 ) ) ;
#64 = ADVANCED_FACE ( 'NONE', ( #164 ), #363, .T. ) ;
#65 = DIRECTION ( 'NONE',  ( -4.252335473556634944E-31, -1.000000000000000000, -1.217917285207545679E-16 ) ) ;
#66 = ORIENTED_EDGE ( 'NONE', *, *, #61, .F. ) ;
#67 = EDGE_LOOP ( 'NONE', ( #265, #301 ) ) ;
#68 = EDGE_CURVE ( 'NONE', #22, #158, #252, .T. ) ;
#69 = DIRECTION ( 'NONE',  ( -3.491481338843133355E-15, 1.224646799147353207E-16, -1.000000000000000000 ) ) ;
#70 = AXIS2_PLACEMENT_3D ( 'NONE', #160, #51, #191 ) ;
#71 = ORIENTED_EDGE ( 'NONE', *, *, #109, .F. ) ;
#72 = ORIENTED_EDGE ( 'NONE', *, *, #330, .T. ) ;
#73 = CARTESIAN_POINT ( 'NONE',  ( 1.256933281983528008E-13, -4.408728476930470856E-15, 36.00000000000000000 ) ) ;
#74 = DIRECTION ( 'NONE',  ( -3.491481338843133355E-15, 1.224646799147353207E-16, -1.000000000000000000 ) ) ;
#75 = COORDINATED_UNIVERSAL_TIME_OFFSET ( 1, 0, .AHEAD. ) ;
#76 = DIRECTION ( 'NONE',  ( 0.000000000000000000, 1.000000000000000000, 0.000000000000000000 ) ) ;
#77 = PERSON_AND_ORGANIZATION ( #11, #20 ) ;
#78 = CARTESIAN_POINT ( 'NONE',  ( 6.417552967237856336E-14, -8.000000000000007105, 36.00000000000000000 ) ) ;
#79 = CIRCLE ( 'NONE', #303, 7.500000000000000000 ) ;
#80 = PERSON_AND_ORGANIZATION_ROLE ( 'creator' ) ;
#81 = APPROVAL_STATUS ( 'not_yet_approved' ) ;
#82 = DIRECTION ( 'NONE',  ( -3.491481338843133355E-15, 1.224646799147353207E-16, -1.000000000000000000 ) ) ;
#83 = DIRECTION ( 'NONE',  ( 4.275831445896958607E-31, 1.000000000000000000, 1.224646799147353207E-16 ) ) ;
#84 = PERSON_AND_ORGANIZATION_ROLE ( 'design_owner' ) ;
#85 = CARTESIAN_POINT ( 'NONE',  ( -3.316821669374174731E-30, 1.156991560613707363E-31, -9.499754824618853288E-16 ) ) ;
#86 = EDGE_CURVE ( 'NONE', #240, #242, #275, .T. ) ;
#87 = FACE_OUTER_BOUND ( 'NONE', #23, .T. ) ;
#88 = DIRECTION ( 'NONE',  ( 0.000000000000000000, 1.000000000000000000, 0.000000000000000000 ) ) ;
#89 = CC_DESIGN_APPROVAL ( #126, ( #361 ) ) ;
#90 = ORIENTED_EDGE ( 'NONE', *, *, #40, .F. ) ;
#91 = EDGE_LOOP ( 'NONE', ( #136, #178, #237, #100 ) ) ;
#92 = UNCERTAINTY_MEASURE_WITH_UNIT (LENGTH_MEASURE( 1.000000000000000082E-05 ), #59, 'distance_accuracy_value', 'NONE');
#93 = DIRECTION ( 'NONE',  ( -2.468850131082261005E-15, 0.7071067811865489050, -0.7071067811865462405 ) ) ;
#94 = CC_DESIGN_DATE_AND_TIME_ASSIGNMENT ( #300, #217, ( #361 ) ) ;
#95 = CIRCLE ( 'NONE', #128, 8.000000000000001776 ) ;
#96 = ORIENTED_EDGE ( 'NONE', *, *, #129, .T. ) ;
#97 = VECTOR ( 'NONE', #166, 1000.000000000000000 ) ;
#98 = EDGE_CURVE ( 'NONE', #22, #48, #55, .T. ) ;
#99 = ORIENTED_EDGE ( 'NONE', *, *, #98, .T. ) ;
#100 = ORIENTED_EDGE ( 'NONE', *, *, #302, .T. ) ;
#101 = CLOSED_SHELL ( 'NONE', ( #2, #239, #64, #173, #293, #266 ) ) ;
#102 = DIRECTION ( 'NONE',  ( -4.212971753347078429E-31, -1.000000000000000000, -1.219727444046192488E-16 ) ) ;
#103 = CC_DESIGN_SECURITY_CLASSIFICATION ( #12, ( #44 ) ) ;
#104 = AXIS2_PLACEMENT_3D ( 'NONE', #322, #69, #180 ) ;
#105 = PERSON_AND_ORGANIZATION_ROLE ( 'creator' ) ;
#106 = CYLINDRICAL_SURFACE ( 'NONE', #336, 8.000000000000001776 ) ;
#107 = PERSON_AND_ORGANIZATION ( #11, #20 ) ;
#108 = ORIENTED_EDGE ( 'NONE', *, *, #140, .T. ) ;
#109 = EDGE_CURVE ( 'NONE', #181, #127, #324, .T. ) ;
#110 = APPROVAL_DATE_TIME ( #56, #270 ) ;
#111 = CARTESIAN_POINT ( 'NONE',  ( 1.256933281983528008E-13, -4.408728476930470856E-15, 36.00000000000000000 ) ) ;
#112 = DATE_AND_TIME ( #343, #312 ) ;
#113 = CARTESIAN_POINT ( 'NONE',  ( 3.491481338843133355E-13, 7.499999999999987566, 100.0000000000000000 ) ) ;
#114 = DIRECTION ( 'NONE',  ( 3.491481338843133355E-15, -1.217917285207545432E-16, 1.000000000000000000 ) ) ;
#115 = DIRECTION ( 'NONE',  ( 3.491481338843133355E-15, -1.224646799147353207E-16, 1.000000000000000000 ) ) ;
#116 = CIRCLE ( 'NONE', #7, 7.799999999999998046 ) ;
#117 = CYLINDRICAL_SURFACE ( 'NONE', #332, 8.000000000000001776 ) ;
#118 = APPROVAL_PERSON_ORGANIZATION ( #247, #270, #359 ) ;
#119 = AXIS2_PLACEMENT_3D ( 'NONE', #73, #138, #184 ) ;
#120 = CARTESIAN_POINT ( 'NONE',  ( 6.982962677686210504E-16, -8.000000000000000000, 0.1999999999999983735 ) ) ;
#121 = CARTESIAN_POINT ( 'NONE',  ( 3.491481338843133355E-13, -1.224646799147353217E-14, 100.0000000000000000 ) ) ;
#122 = CARTESIAN_POINT ( 'NONE',  ( 6.319581223306073266E-14, 8.000000000000000000, 0.2000000000000003442 ) ) ;
#123 = CIRCLE ( 'NONE', #150, 8.000000000000000000 ) ;
#124 = VERTEX_POINT ( 'NONE', #271 ) ;
#125 = ORIENTED_EDGE ( 'NONE', *, *, #10, .F. ) ;
#126 = APPROVAL ( #13, 'UNSPECIFIED' ) ;
#127 = VERTEX_POINT ( 'NONE', #50 ) ;
#128 = AXIS2_PLACEMENT_3D ( 'NONE', #170, #39, #258 ) ;
#129 = EDGE_CURVE ( 'NONE', #245, #325, #210, .T. ) ;
#130 = ORIENTED_EDGE ( 'NONE', *, *, #68, .F. ) ;
#131 = EDGE_LOOP ( 'NONE', ( #108, #45, #179, #292 ) ) ;
#132 = CARTESIAN_POINT ( 'NONE',  ( 0.000000000000000000, 0.000000000000000000, 0.000000000000000000 ) ) ;
#133 = CARTESIAN_POINT ( 'NONE',  ( 3.491481338843133355E-13, -1.224646799147353217E-14, 100.0000000000000000 ) ) ;
#134 = CALENDAR_DATE ( 2023, 3, 4 ) ;
#135 = ADVANCED_FACE ( 'NONE', ( #172 ), #317, .F. ) ;
#136 = ORIENTED_EDGE ( 'NONE', *, *, #198, .F. ) ;
#137 = SECURITY_CLASSIFICATION_LEVEL ( 'unclassified' ) ;
#138 = DIRECTION ( 'NONE',  ( -3.491481338843133355E-15, 1.224646799147353207E-16, -1.000000000000000000 ) ) ;
#139 = AXIS2_PLACEMENT_3D ( 'NONE', #222, #189, #102 ) ;
#140 = EDGE_CURVE ( 'NONE', #242, #240, #116, .T. ) ;
#141 = CIRCLE ( 'NONE', #185, 8.000000000000001776 ) ;
#142 = FACE_OUTER_BOUND ( 'NONE', #206, .T. ) ;
#143 = DIRECTION ( 'NONE',  ( 0.000000000000000000, 0.000000000000000000, 1.000000000000000000 ) ) ;
#144 = DIRECTION ( 'NONE',  ( 4.275831445896958607E-31, 1.000000000000000000, 1.224646799147353207E-16 ) ) ;
#145 = LINE ( 'NONE', #120, #348 ) ;
#146 = LINE ( 'NONE', #197, #352 ) ;
#147 = LINE ( 'NONE', #153, #203 ) ;
#148 = DIRECTION ( 'NONE',  ( -3.491481338843133355E-15, 1.224646799147353207E-16, -1.000000000000000000 ) ) ;
#149 = VECTOR ( 'NONE', #74, 1000.000000000000000 ) ;
#150 = AXIS2_PLACEMENT_3D ( 'NONE', #351, #62, #291 ) ;
#151 = ORIENTED_EDGE ( 'NONE', *, *, #40, .T. ) ;
#152 = ORIENTED_EDGE ( 'NONE', *, *, #342, .T. ) ;
#153 = CARTESIAN_POINT ( 'NONE',  ( 3.474023932148917752E-13, 7.999999999999989342, 99.50000000000000000 ) ) ;
#154 = APPLICATION_CONTEXT ( 'configuration controlled 3d designs of mechanical parts and assemblies' ) ;
#155 = EDGE_CURVE ( 'NONE', #127, #181, #320, .T. ) ;
#156 = CC_DESIGN_PERSON_AND_ORGANIZATION_ASSIGNMENT ( #334, #105, ( #44 ) ) ;
#157 = ORIENTED_EDGE ( 'NONE', *, *, #155, .T. ) ;
#158 = VERTEX_POINT ( 'NONE', #122 ) ;
#159 = AXIS2_PLACEMENT_3D ( 'NONE', #171, #114, #340 ) ;
#160 = CARTESIAN_POINT ( 'NONE',  ( 0.000000000000000000, 0.000000000000000000, 0.000000000000000000 ) ) ;
#161 = DIRECTION ( 'NONE',  ( 3.491481338843133355E-15, -1.217917285207545432E-16, 1.000000000000000000 ) ) ;
#162 = AXIS2_PLACEMENT_3D ( 'NONE', #226, #195, #88 ) ;
#163 = COORDINATED_UNIVERSAL_TIME_OFFSET ( 1, 0, .AHEAD. ) ;
#164 = FACE_OUTER_BOUND ( 'NONE', #91, .T. ) ;
#165 = ADVANCED_FACE ( 'NONE', ( #313 ), #6, .F. ) ;
#166 = DIRECTION ( 'NONE',  ( -3.491481338843133355E-15, 1.224646799147353207E-16, -1.000000000000000000 ) ) ;
#167 = AXIS2_PLACEMENT_3D ( 'NONE', #111, #296, #26 ) ;
#168 = VECTOR ( 'NONE', #357, 1000.000000000000000 ) ;
#169 = DIRECTION ( 'NONE',  ( 3.491481338843133355E-15, -1.217917285207545432E-16, 1.000000000000000000 ) ) ;
#170 = CARTESIAN_POINT ( 'NONE',  ( 1.256933281983528008E-13, -4.408728476930470856E-15, 36.00000000000000000 ) ) ;
#171 = CARTESIAN_POINT ( 'NONE',  ( 6.982962677686244031E-16, -2.435834570415082915E-17, 0.1999999999999993727 ) ) ;
#172 = FACE_OUTER_BOUND ( 'NONE', #67, .T. ) ;
#173 = ADVANCED_FACE ( 'NONE', ( #338 ), #280, .T. ) ;
#174 = DIRECTION ( 'NONE',  ( 0.000000000000000000, 1.000000000000000000, 0.000000000000000000 ) ) ;
#175 = PERSON_AND_ORGANIZATION ( #11, #20 ) ;
#176 = CARTESIAN_POINT ( 'NONE',  ( 1.256933281983528008E-13, 5.999039130647424958E-32, 36.00000000000000000 ) ) ;
#177 = AXIS2_PLACEMENT_3D ( 'NONE', #347, #82, #260 ) ;
#178 = ORIENTED_EDGE ( 'NONE', *, *, #264, .T. ) ;
#179 = ORIENTED_EDGE ( 'NONE', *, *, #342, .F. ) ;
#180 = DIRECTION ( 'NONE',  ( 0.000000000000000000, 1.000000000000000000, 0.000000000000000000 ) ) ;
#181 = VERTEX_POINT ( 'NONE', #224 ) ;
#182 = VECTOR ( 'NONE', #30, 1000.000000000000114 ) ;
#183 = ORIENTED_EDGE ( 'NONE', *, *, #140, .F. ) ;
#184 = DIRECTION ( 'NONE',  ( 0.000000000000000000, 1.000000000000000000, 0.000000000000000000 ) ) ;
#185 = AXIS2_PLACEMENT_3D ( 'NONE', #15, #255, #253 ) ;
#186 = CARTESIAN_POINT ( 'NONE',  ( 3.474023932148917752E-13, -1.218523565151616460E-14, 99.50000000000000000 ) ) ;
#187 = DATE_AND_TIME ( #274, #53 ) ;
#188 = CC_DESIGN_PERSON_AND_ORGANIZATION_ASSIGNMENT ( #175, #84, ( #213 ) ) ;
#189 = DIRECTION ( 'NONE',  ( 3.491481338843133355E-15, -1.217917285207545432E-16, 1.000000000000000000 ) ) ;
#190 = APPROVAL_DATE_TIME ( #187, #283 ) ;
#191 = DIRECTION ( 'NONE',  ( 4.275831445896958607E-31, 1.000000000000000000, 1.224646799147353207E-16 ) ) ;
#192 = AXIS2_PLACEMENT_3D ( 'NONE', #58, #35, #144 ) ;
#193 = MANIFOLD_SOLID_BREP ( 'Corps-Déplacer/Copier1[1]', #286 ) ;
#194 = PERSON_AND_ORGANIZATION_ROLE ( 'design_supplier' ) ;
#195 = DIRECTION ( 'NONE',  ( -3.491481338843133355E-15, 1.224646799147353207E-16, -1.000000000000000000 ) ) ;
#196 = LOCAL_TIME ( 7, 26, 7.000000000000000000, #75 ) ;
#197 = CARTESIAN_POINT ( 'NONE',  ( 9.797174393178792131E-16, -8.000000000000000000, -9.797174393178859184E-16 ) ) ;
#198 = EDGE_CURVE ( 'NONE', #48, #209, #146, .T. ) ;
#199 = CARTESIAN_POINT ( 'NONE',  ( 3.492243648189417717E-13, -7.500000000000011546, 100.0000000000000000 ) ) ;
#200 = CARTESIAN_POINT ( 'NONE',  ( 3.474023932148917752E-13, -1.218523565151616460E-14, 99.50000000000000000 ) ) ;
#201 = DIRECTION ( 'NONE',  ( 4.275831445896958607E-31, 1.000000000000000000, 1.224646799147353207E-16 ) ) ;
#202 = ADVANCED_FACE ( 'NONE', ( #142 ), #117, .T. ) ;
#203 = VECTOR ( 'NONE', #93, 1000.000000000000000 ) ;
#204 = CC_DESIGN_PERSON_AND_ORGANIZATION_ASSIGNMENT ( #57, #194, ( #44 ) ) ;
#205 = ORIENTED_EDGE ( 'NONE', *, *, #302, .F. ) ;
#206 = EDGE_LOOP ( 'NONE', ( #321, #151, #263, #349 ) ) ;
#207 =( NAMED_UNIT ( * ) PLANE_ANGLE_UNIT ( ) SI_UNIT ( $, .RADIAN. ) );
#208 = LOCAL_TIME ( 7, 26, 7.000000000000000000, #221 ) ;
#209 = VERTEX_POINT ( 'NONE', #311 ) ;
#210 = CIRCLE ( 'NONE', #306, 7.500000000000000000 ) ;
#211 = EDGE_LOOP ( 'NONE', ( #125, #24, #261, #52 ) ) ;
#212 = CARTESIAN_POINT ( 'NONE',  ( 9.797174393178794103E-16, -8.000000000000001776, -9.797174393178861156E-16 ) ) ;
#213 = PRODUCT ( '367627', '367627', '', ( #8 ) ) ;
#214 = AXIS2_PLACEMENT_3D ( 'NONE', #186, #299, #76 ) ;
#215 = CARTESIAN_POINT ( 'NONE',  ( 1.678013707086510420E-15, 8.000000000000000000, 0.2000000000000003442 ) ) ;
#216 = CONICAL_SURFACE ( 'NONE', #159, 8.000000000000000000, 0.7853981633974531640 ) ;
#217 = DATE_TIME_ROLE ( 'creation_date' ) ;
#218 = DIRECTION ( 'NONE',  ( -2.382254525458712342E-15, -0.7071067811865486830, -0.7071067811865464625 ) ) ;
#219 = APPROVAL_ROLE ( '' ) ;
#220 = ORIENTED_EDGE ( 'NONE', *, *, #10, .T. ) ;
#221 = COORDINATED_UNIVERSAL_TIME_OFFSET ( 1, 0, .AHEAD. ) ;
#222 = CARTESIAN_POINT ( 'NONE',  ( 6.982962677686244031E-16, -2.435834570415082915E-17, 0.1999999999999993727 ) ) ;
#223 = APPROVAL_STATUS ( 'not_yet_approved' ) ;
#224 = CARTESIAN_POINT ( 'NONE',  ( 2.375275781459401944E-13, -8.000000000000007105, 36.00000000000000000 ) ) ;
#225 = AXIS2_PLACEMENT_3D ( 'NONE', #176, #42, #228 ) ;
#226 = CARTESIAN_POINT ( 'NONE',  ( 1.256933281983528008E-13, -4.408728476930470856E-15, 36.00000000000000000 ) ) ;
#227 = CC_DESIGN_PERSON_AND_ORGANIZATION_ASSIGNMENT ( #77, #80, ( #361 ) ) ;
#228 = DIRECTION ( 'NONE',  ( -4.275831445896958607E-31, -1.000000000000000000, -1.224646799147353207E-16 ) ) ;
#229 = AXIS2_PLACEMENT_3D ( 'NONE', #276, #161, #1 ) ;
#230 = APPROVAL_ROLE ( '' ) ;
#231 = FACE_OUTER_BOUND ( 'NONE', #290, .T. ) ;
#232 = ADVANCED_FACE ( 'NONE', ( #16 ), #37, .T. ) ;
#233 = CC_DESIGN_PERSON_AND_ORGANIZATION_ASSIGNMENT ( #250, #305, ( #12 ) ) ;
#234 = DIRECTION ( 'NONE',  ( -3.491481338843133355E-15, 1.224646799147353207E-16, -1.000000000000000000 ) ) ;
#235 = AXIS2_PLACEMENT_3D ( 'NONE', #335, #279, #201 ) ;
#236 = ORIENTED_EDGE ( 'NONE', *, *, #86, .T. ) ;
#237 = ORIENTED_EDGE ( 'NONE', *, *, #68, .T. ) ;
#238 = DIRECTION ( 'NONE',  ( 1.000000000000000000, 0.000000000000000000, 0.000000000000000000 ) ) ;
#239 = ADVANCED_FACE ( 'NONE', ( #341 ), #60, .T. ) ;
#240 = VERTEX_POINT ( 'NONE', #9 ) ;
#241 = AXIS2_PLACEMENT_3D ( 'NONE', #200, #256, #5 ) ;
#242 = VERTEX_POINT ( 'NONE', #316 ) ;
#243 = FACE_OUTER_BOUND ( 'NONE', #131, .T. ) ;
#244 = EDGE_CURVE ( 'NONE', #325, #245, #79, .T. ) ;
#245 = VERTEX_POINT ( 'NONE', #113 ) ;
#246 = DIRECTION ( 'NONE',  ( 4.275831445896958607E-31, 1.000000000000000000, 1.224646799147353207E-16 ) ) ;
#247 = PERSON_AND_ORGANIZATION ( #11, #20 ) ;
#248 = DIRECTION ( 'NONE',  ( -3.491481338843133355E-15, 1.224646799147353207E-16, -1.000000000000000000 ) ) ;
#249 = APPROVAL_PERSON_ORGANIZATION ( #107, #283, #219 ) ;
#250 = PERSON_AND_ORGANIZATION ( #11, #20 ) ;
#251 = VERTEX_POINT ( 'NONE', #282 ) ;
#252 = LINE ( 'NONE', #304, #97 ) ;
#253 = DIRECTION ( 'NONE',  ( 0.000000000000000000, 1.000000000000000000, 0.000000000000000000 ) ) ;
#254 = DIRECTION ( 'NONE',  ( 3.491481338843133355E-15, -1.217917285207545432E-16, 1.000000000000000000 ) ) ;
#255 = DIRECTION ( 'NONE',  ( -3.491481338843133355E-15, 1.224646799147353207E-16, -1.000000000000000000 ) ) ;
#256 = DIRECTION ( 'NONE',  ( -3.491481338843133355E-15, 1.224646799147353207E-16, -1.000000000000000000 ) ) ;
#257 = CARTESIAN_POINT ( 'NONE',  ( 0.000000000000000000, 0.000000000000000000, 0.000000000000000000 ) ) ;
#258 = DIRECTION ( 'NONE',  ( 0.000000000000000000, 1.000000000000000000, 0.000000000000000000 ) ) ;
#259 = DIRECTION ( 'NONE',  ( -4.212971753347078429E-31, -1.000000000000000000, -1.219727444046192488E-16 ) ) ;
#260 = DIRECTION ( 'NONE',  ( 4.275831445896958607E-31, 1.000000000000000000, 1.224646799147353207E-16 ) ) ;
#261 = ORIENTED_EDGE ( 'NONE', *, *, #289, .T. ) ;
#262 = APPROVAL_PERSON_ORGANIZATION ( #315, #126, #230 ) ;
#263 = ORIENTED_EDGE ( 'NONE', *, *, #155, .F. ) ;
#264 = EDGE_CURVE ( 'NONE', #48, #22, #95, .T. ) ;
#265 = ORIENTED_EDGE ( 'NONE', *, *, #129, .F. ) ;
#266 = ADVANCED_FACE ( 'NONE', ( #231 ), #344, .T. ) ;
#267 = APPLICATION_CONTEXT ( 'configuration controlled 3d designs of mechanical parts and assemblies' ) ;
#268 = ORIENTED_EDGE ( 'NONE', *, *, #86, .F. ) ;
#269 = ORIENTED_EDGE ( 'NONE', *, *, #109, .T. ) ;
#270 = APPROVAL ( #223, 'UNSPECIFIED' ) ;
#271 = CARTESIAN_POINT ( 'NONE',  ( 2.375275781459401439E-13, -8.000000000000014211, 99.50000000000000000 ) ) ;
#272 = LINE ( 'NONE', #327, #149 ) ;
#273 = FACE_OUTER_BOUND ( 'NONE', #43, .T. ) ;
#274 = CALENDAR_DATE ( 2023, 3, 4 ) ;
#275 = CIRCLE ( 'NONE', #229, 7.799999999999998046 ) ;
#276 = CARTESIAN_POINT ( 'NONE',  ( -3.316821669374174731E-30, 1.156991560613707363E-31, -9.499754824618853288E-16 ) ) ;
#277 = APPROVAL_DATE_TIME ( #112, #126 ) ;
#278 = CIRCLE ( 'NONE', #297, 8.000000000000000000 ) ;
#279 = DIRECTION ( 'NONE',  ( -3.491481338843133355E-15, 1.224646799147353207E-16, -1.000000000000000000 ) ) ;
#280 = PLANE ( 'NONE',  #225 ) ;
#281 = COORDINATED_UNIVERSAL_TIME_OFFSET ( 1, 0, .AHEAD. ) ;
#282 = CARTESIAN_POINT ( 'NONE',  ( 3.474023932148917752E-13, 7.999999999999989342, 99.50000000000000000 ) ) ;
#283 = APPROVAL ( #81, 'UNSPECIFIED' ) ;
#284 = APPLICATION_PROTOCOL_DEFINITION ( 'international standard', 'config_control_design', 1994, #154 ) ;
#285 = DIRECTION ( 'NONE',  ( -4.275831445896958607E-31, -1.000000000000000000, -1.224646799147353207E-16 ) ) ;
#286 = CLOSED_SHELL ( 'NONE', ( #309, #202, #165, #17, #232, #135 ) ) ;
#287 = ORIENTED_EDGE ( 'NONE', *, *, #36, .F. ) ;
#288 = CC_DESIGN_APPROVAL ( #283, ( #12 ) ) ;
#289 = EDGE_CURVE ( 'NONE', #245, #251, #147, .T. ) ;
#290 = EDGE_LOOP ( 'NONE', ( #183, #268 ) ) ;
#291 = DIRECTION ( 'NONE',  ( -4.212971753347078429E-31, -1.000000000000000000, -1.219727444046192488E-16 ) ) ;
#292 = ORIENTED_EDGE ( 'NONE', *, *, #308, .F. ) ;
#293 = ADVANCED_FACE ( 'NONE', ( #337 ), #216, .T. ) ;
#294 = CC_DESIGN_DATE_AND_TIME_ASSIGNMENT ( #333, #362, ( #12 ) ) ;
#295 = ORIENTED_EDGE ( 'NONE', *, *, #98, .F. ) ;
#296 = DIRECTION ( 'NONE',  ( -3.491481338843133355E-15, 1.224646799147353207E-16, -1.000000000000000000 ) ) ;
#297 = AXIS2_PLACEMENT_3D ( 'NONE', #38, #169, #259 ) ;
#298 = PRODUCT_DEFINITION_SHAPE ( 'NONE', 'NONE',  #361 ) ;
#299 = DIRECTION ( 'NONE',  ( -3.491481338843133355E-15, 1.224646799147353207E-16, -1.000000000000000000 ) ) ;
#300 = DATE_AND_TIME ( #3, #196 ) ;
#301 = ORIENTED_EDGE ( 'NONE', *, *, #244, .F. ) ;
#302 = EDGE_CURVE ( 'NONE', #158, #209, #278, .T. ) ;
#303 = AXIS2_PLACEMENT_3D ( 'NONE', #121, #63, #174 ) ;
#304 = CARTESIAN_POINT ( 'NONE',  ( 3.420665156717566885E-30, 8.000000000000000000, 9.797174393178825657E-16 ) ) ;
#305 = PERSON_AND_ORGANIZATION_ROLE ( 'classification_officer' ) ;
#306 = AXIS2_PLACEMENT_3D ( 'NONE', #133, #248, #360 ) ;
#307 = SHAPE_DEFINITION_REPRESENTATION ( #298, #355 ) ;
#308 = EDGE_CURVE ( 'NONE', #242, #209, #145, .T. ) ;
#309 = ADVANCED_FACE ( 'NONE', ( #87 ), #4, .T. ) ;
#310 = CONICAL_SURFACE ( 'NONE', #139, 8.000000000000000000, 0.7853981633974531640 ) ;
#311 = CARTESIAN_POINT ( 'NONE',  ( 6.417552967237858860E-14, -8.000000000000000000, 0.1999999999999983735 ) ) ;
#312 = LOCAL_TIME ( 7, 26, 7.000000000000000000, #281 ) ;
#313 = FACE_OUTER_BOUND ( 'NONE', #319, .T. ) ;
#314 = MANIFOLD_SOLID_BREP ( 'Corps-Déplacer/Copier1[2]', #101 ) ;
#315 = PERSON_AND_ORGANIZATION ( #11, #20 ) ;
#316 = CARTESIAN_POINT ( 'NONE',  ( -6.633643338748349461E-30, -7.799999999999998046, -1.899950964923770658E-15 ) ) ;
#317 = PLANE ( 'NONE',  #177 ) ;
#318 =( GEOMETRIC_REPRESENTATION_CONTEXT ( 3 ) GLOBAL_UNCERTAINTY_ASSIGNED_CONTEXT ( ( #92 ) ) GLOBAL_UNIT_ASSIGNED_CONTEXT ( ( #59, #207, #32 ) ) REPRESENTATION_CONTEXT ( 'NONE', 'WORKASPACE' ) );
#319 = EDGE_LOOP ( 'NONE', ( #157, #269 ) ) ;
#320 = CIRCLE ( 'NONE', #162, 8.000000000000001776 ) ;
#321 = ORIENTED_EDGE ( 'NONE', *, *, #61, .T. ) ;
#322 = CARTESIAN_POINT ( 'NONE',  ( 3.474023932148917752E-13, -1.218523565151616460E-14, 99.50000000000000000 ) ) ;
#323 = LOCAL_TIME ( 7, 26, 7.000000000000000000, #28 ) ;
#324 = CIRCLE ( 'NONE', #167, 8.000000000000001776 ) ;
#325 = VERTEX_POINT ( 'NONE', #199 ) ;
#326 = EDGE_LOOP ( 'NONE', ( #287, #236, #21, #205 ) ) ;
#327 = CARTESIAN_POINT ( 'NONE',  ( 3.420665156717567586E-30, 8.000000000000001776, 9.797174393178827630E-16 ) ) ;
#328 = CARTESIAN_POINT ( 'NONE',  ( 3.483821106542096563E-13, -8.000000000000014211, 99.50000000000000000 ) ) ;
#329 = LINE ( 'NONE', #215, #182 ) ;
#330 = EDGE_CURVE ( 'NONE', #124, #251, #141, .T. ) ;
#331 = LINE ( 'NONE', #212, #168 ) ;
#332 = AXIS2_PLACEMENT_3D ( 'NONE', #33, #148, #83 ) ;
#333 = DATE_AND_TIME ( #31, #208 ) ;
#334 = PERSON_AND_ORGANIZATION ( #11, #20 ) ;
#335 = CARTESIAN_POINT ( 'NONE',  ( -1.710332578358783092E-30, 5.999039130647430431E-32, -4.898587196589412829E-16 ) ) ;
#336 = AXIS2_PLACEMENT_3D ( 'NONE', #132, #29, #246 ) ;
#337 = FACE_OUTER_BOUND ( 'NONE', #326, .T. ) ;
#338 = FACE_OUTER_BOUND ( 'NONE', #353, .T. ) ;
#339 = CC_DESIGN_APPROVAL ( #270, ( #44 ) ) ;
#340 = DIRECTION ( 'NONE',  ( -4.212971753347078429E-31, -1.000000000000000000, -1.219727444046192488E-16 ) ) ;
#341 = FACE_OUTER_BOUND ( 'NONE', #54, .T. ) ;
#342 = EDGE_CURVE ( 'NONE', #209, #158, #123, .T. ) ;
#343 = CALENDAR_DATE ( 2023, 3, 4 ) ;
#344 = PLANE ( 'NONE',  #235 ) ;
#345 = VECTOR ( 'NONE', #218, 1000.000000000000000 ) ;
#346 = DESIGN_CONTEXT ( 'detailed design', #154, 'design' ) ;
#347 = CARTESIAN_POINT ( 'NONE',  ( 3.491481338843133355E-13, 5.624099184981947966E-32, 100.0000000000000000 ) ) ;
#348 = VECTOR ( 'NONE', #41, 1000.000000000000000 ) ;
#349 = ORIENTED_EDGE ( 'NONE', *, *, #46, .F. ) ;
#350 = ORIENTED_EDGE ( 'NONE', *, *, #264, .F. ) ;
#351 = CARTESIAN_POINT ( 'NONE',  ( 6.982962677686244031E-16, -2.435834570415082915E-17, 0.1999999999999993727 ) ) ;
#352 = VECTOR ( 'NONE', #234, 1000.000000000000000 ) ;
#353 = EDGE_LOOP ( 'NONE', ( #295, #350 ) ) ;
#354 = PRODUCT_RELATED_PRODUCT_CATEGORY ( 'detail', '', ( #213 ) ) ;
#355 = ADVANCED_BREP_SHAPE_REPRESENTATION ( '367627', ( #193, #314, #49 ), #318 ) ;
#356 = ORIENTED_EDGE ( 'NONE', *, *, #198, .T. ) ;
#357 = DIRECTION ( 'NONE',  ( -3.491481338843133355E-15, 1.224646799147353207E-16, -1.000000000000000000 ) ) ;
#358 = CARTESIAN_POINT ( 'NONE',  ( 1.256933281983528008E-13, 7.999999999999996447, 36.00000000000000000 ) ) ;
#359 = APPROVAL_ROLE ( '' ) ;
#360 = DIRECTION ( 'NONE',  ( 0.000000000000000000, 1.000000000000000000, 0.000000000000000000 ) ) ;
#361 = PRODUCT_DEFINITION ( 'UNKNOWN', '', #44, #346 ) ;
#362 = DATE_TIME_ROLE ( 'classification_date' ) ;
#363 = CYLINDRICAL_SURFACE ( 'NONE', #70, 8.000000000000000000 ) ;
ENDSEC;
END-ISO-10303-21;
