ISO-10303-21;
HEADER;
FILE_DESCRIPTION (( 'STEP AP203' ),
    '1' );
FILE_NAME ('36690.step',
    '2021-12-06T12:59:27',
    ( '' ),
    ( '' ),
    'SwSTEP 2.0',
    'SolidWorks 2019',
    '' );
FILE_SCHEMA (( 'CONFIG_CONTROL_DESIGN' ));
ENDSEC;

DATA;
#1 = ORIENTED_EDGE ( 'NONE', *, *, #57, .F. ) ;
#2 = EDGE_LOOP ( 'NONE', ( #144 ) ) ;
#3 = APPLICATION_CONTEXT ( 'configuration controlled 3d designs of mechanical parts and assemblies' ) ;
#4 = EDGE_LOOP ( 'NONE', ( #13 ) ) ;
#5 = COORDINATED_UNIVERSAL_TIME_OFFSET ( 1, 0, .AHEAD. ) ;
#6 = APPLICATION_PROTOCOL_DEFINITION ( 'international standard', 'config_control_design', 1994, #3 ) ;
#7 = LOCAL_TIME ( 13, 59, 27.00000000000000000, #39 ) ;
#8 = CARTESIAN_POINT ( 'NONE',  ( 8.728703347107833388E-15, 10.00000000000000000, 2.500000000000000000 ) ) ;
#9 = VERTEX_POINT ( 'NONE', #8 ) ;
#10 = DIRECTION ( 'NONE',  ( 1.000000000000000000, 0.0000000000000000000, 0.0000000000000000000 ) ) ;
#11 = PERSON_AND_ORGANIZATION_ROLE ( 'classification_officer' ) ;
#12 = AXIS2_PLACEMENT_3D ( 'NONE', #114, #90, #34 ) ;
#13 = ORIENTED_EDGE ( 'NONE', *, *, #84, .F. ) ;
#14 =( NAMED_UNIT ( * ) PLANE_ANGLE_UNIT ( ) SI_UNIT ( $, .RADIAN. ) );
#15 = CARTESIAN_POINT ( 'NONE',  ( 8.728703347107830233E-15, 2.500000000000000444, 2.499999999999999112 ) ) ;
#16 = CC_DESIGN_APPROVAL ( #133, ( #31 ) ) ;
#17 = EDGE_LOOP ( 'NONE', ( #1 ) ) ;
#18 = PERSON_AND_ORGANIZATION ( #23, #71 ) ;
#19 = CC_DESIGN_DATE_AND_TIME_ASSIGNMENT ( #118, #165, ( #31 ) ) ;
#20 = APPROVAL_DATE_TIME ( #142, #59 ) ;
#21 = DESIGN_CONTEXT ( 'detailed design', #29, 'design' ) ;
#22 = PERSON_AND_ORGANIZATION_ROLE ( 'design_supplier' ) ;
#23 = PERSON ( 'UNSPECIFIED', 'UNSPECIFIED', 'UNSPECIFIED', ('UNSPECIFIED'), ('UNSPECIFIED'), ('UNSPECIFIED') ) ;
#24 = DIRECTION ( 'NONE',  ( -3.491481338843133355E-15, 1.469576158976823553E-16, -1.000000000000000000 ) ) ;
#25 = APPROVAL_ROLE ( '' ) ;
#26 = CARTESIAN_POINT ( 'NONE',  ( 0.0000000000000000000, 0.0000000000000000000, 0.0000000000000000000 ) ) ;
#27 = FACE_BOUND ( 'NONE', #166, .T. ) ;
#28 = CIRCLE ( 'NONE', #61, 10.00000000000000000 ) ;
#29 = APPLICATION_CONTEXT ( 'configuration controlled 3d designs of mechanical parts and assemblies' ) ;
#30 = LOCAL_TIME ( 13, 59, 27.00000000000000000, #78 ) ;
#31 = SECURITY_CLASSIFICATION ( '', '', #47 ) ;
#32 = CC_DESIGN_PERSON_AND_ORGANIZATION_ASSIGNMENT ( #151, #22, ( #107 ) ) ;
#33 = PERSON_AND_ORGANIZATION ( #23, #71 ) ;
#34 = DIRECTION ( 'NONE',  ( 5.130997735076349802E-31, 1.000000000000000000, 1.469576158976823799E-16 ) ) ;
#35 = COORDINATED_UNIVERSAL_TIME_OFFSET ( 1, 0, .AHEAD. ) ;
#36 = LOCAL_TIME ( 13, 59, 27.00000000000000000, #5 ) ;
#37 = FACE_OUTER_BOUND ( 'NONE', #160, .T. ) ;
#38 = APPROVAL_ROLE ( '' ) ;
#39 = COORDINATED_UNIVERSAL_TIME_OFFSET ( 1, 0, .AHEAD. ) ;
#40 = FACE_BOUND ( 'NONE', #134, .T. ) ;
#41 = DIRECTION ( 'NONE',  ( -3.491481338843133355E-15, 1.469576158976823553E-16, -1.000000000000000000 ) ) ;
#42 = ORIENTED_EDGE ( 'NONE', *, *, #167, .T. ) ;
#43 = CLOSED_SHELL ( 'NONE', ( #103, #45, #116, #140 ) ) ;
#44 = DATE_AND_TIME ( #67, #83 ) ;
#45 = ADVANCED_FACE ( 'NONE', ( #58, #81 ), #97, .T. ) ;
#46 = PERSON_AND_ORGANIZATION ( #23, #71 ) ;
#47 = SECURITY_CLASSIFICATION_LEVEL ( 'unclassified' ) ;
#48 = APPROVAL_PERSON_ORGANIZATION ( #153, #125, #38 ) ;
#49 = FACE_OUTER_BOUND ( 'NONE', #4, .T. ) ;
#50 = PRODUCT_DEFINITION_SHAPE ( 'NONE', 'NONE',  #147 ) ;
#51 = AXIS2_PLACEMENT_3D ( 'NONE', #132, #120, #54 ) ;
#52 = PERSON_AND_ORGANIZATION ( #23, #71 ) ;
#53 = DIRECTION ( 'NONE',  ( -3.491481338843133355E-15, 1.469576158976823553E-16, -1.000000000000000000 ) ) ;
#54 = DIRECTION ( 'NONE',  ( 5.130997735076348927E-31, 1.000000000000000000, 1.469576158976823553E-16 ) ) ;
#55 = CC_DESIGN_SECURITY_CLASSIFICATION ( #31, ( #107 ) ) ;
#56 = ORIENTED_EDGE ( 'NONE', *, *, #111, .T. ) ;
#57 = EDGE_CURVE ( 'NONE', #9, #9, #28, .T. ) ;
#58 = FACE_OUTER_BOUND ( 'NONE', #96, .T. ) ;
#59 = APPROVAL ( #73, 'UNSPECIFIED' ) ;
#60 = PERSON_AND_ORGANIZATION_ROLE ( 'creator' ) ;
#61 = AXIS2_PLACEMENT_3D ( 'NONE', #110, #53, #158 ) ;
#62 = UNCERTAINTY_MEASURE_WITH_UNIT (LENGTH_MEASURE( 1.000000000000000082E-05 ), #152, 'distance_accuracy_value', 'NONE');
#63 = CYLINDRICAL_SURFACE ( 'NONE', #87, 2.500000000000000444 ) ;
#64 = AXIS2_PLACEMENT_3D ( 'NONE', #106, #108, #131 ) ;
#65 = PRODUCT ( '36690', '36690', '', ( #138 ) ) ;
#66 = CARTESIAN_POINT ( 'NONE',  ( -1.710569414459005214E-46, 2.500000000000000000, 0.0000000000000000000 ) ) ;
#67 = CALENDAR_DATE ( 2021, 6, 12 ) ;
#68 = DIRECTION ( 'NONE',  ( -5.130997735076348927E-31, -1.000000000000000000, -1.469576158976823553E-16 ) ) ;
#69 = CALENDAR_DATE ( 2021, 6, 12 ) ;
#70 = CIRCLE ( 'NONE', #12, 2.500000000000000000 ) ;
#71 = ORGANIZATION ( 'UNSPECIFIED', 'UNSPECIFIED', '' ) ;
#72 = ORIENTED_EDGE ( 'NONE', *, *, #57, .T. ) ;
#73 = APPROVAL_STATUS ( 'not_yet_approved' ) ;
#74 = CC_DESIGN_PERSON_AND_ORGANIZATION_ASSIGNMENT ( #33, #91, ( #147 ) ) ;
#75 = DATE_AND_TIME ( #146, #36 ) ;
#76 = CARTESIAN_POINT ( 'NONE',  ( -6.842277657836020854E-46, 10.00000000000000000, 0.0000000000000000000 ) ) ;
#77 = CC_DESIGN_PERSON_AND_ORGANIZATION_ASSIGNMENT ( #121, #11, ( #31 ) ) ;
#78 = COORDINATED_UNIVERSAL_TIME_OFFSET ( 1, 0, .AHEAD. ) ;
#79 = FACE_OUTER_BOUND ( 'NONE', #145, .T. ) ;
#80 = DIRECTION ( 'NONE',  ( -3.491481338843133355E-15, 1.469576158976823553E-16, -1.000000000000000000 ) ) ;
#81 = FACE_OUTER_BOUND ( 'NONE', #2, .T. ) ;
#82 = DIRECTION ( 'NONE',  ( 3.491481338843133355E-15, -1.469576158976823553E-16, 1.000000000000000000 ) ) ;
#83 = LOCAL_TIME ( 13, 59, 27.00000000000000000, #129 ) ;
#84 = EDGE_CURVE ( 'NONE', #115, #115, #135, .T. ) ;
#85 = PERSON_AND_ORGANIZATION_ROLE ( 'design_owner' ) ;
#86 = CC_DESIGN_DATE_AND_TIME_ASSIGNMENT ( #44, #102, ( #147 ) ) ;
#87 = AXIS2_PLACEMENT_3D ( 'NONE', #88, #24, #101 ) ;
#88 = CARTESIAN_POINT ( 'NONE',  ( 0.0000000000000000000, 0.0000000000000000000, 0.0000000000000000000 ) ) ;
#89 = APPROVAL_ROLE ( '' ) ;
#90 = DIRECTION ( 'NONE',  ( -3.491481338843133355E-15, 1.469576158976823553E-16, -1.000000000000000000 ) ) ;
#91 = PERSON_AND_ORGANIZATION_ROLE ( 'creator' ) ;
#92 =( NAMED_UNIT ( * ) SI_UNIT ( $, .STERADIAN. ) SOLID_ANGLE_UNIT ( ) );
#93 = ADVANCED_BREP_SHAPE_REPRESENTATION ( '36690', ( #100, #99 ), #128 ) ;
#94 = FACE_OUTER_BOUND ( 'NONE', #17, .T. ) ;
#95 = CC_DESIGN_APPROVAL ( #59, ( #107 ) ) ;
#96 = EDGE_LOOP ( 'NONE', ( #72 ) ) ;
#97 = CYLINDRICAL_SURFACE ( 'NONE', #126, 10.00000000000000000 ) ;
#98 = ORIENTED_EDGE ( 'NONE', *, *, #84, .T. ) ;
#99 = AXIS2_PLACEMENT_3D ( 'NONE', #123, #124, #10 ) ;
#100 = MANIFOLD_SOLID_BREP ( 'Corps-Déplacer/Copier1', #43 ) ;
#101 = DIRECTION ( 'NONE',  ( 5.130997735076349802E-31, 1.000000000000000000, 1.469576158976823799E-16 ) ) ;
#102 = DATE_TIME_ROLE ( 'creation_date' ) ;
#103 = ADVANCED_FACE ( 'NONE', ( #79, #27 ), #169, .T. ) ;
#104 = APPROVAL_PERSON_ORGANIZATION ( #18, #133, #89 ) ;
#105 = APPROVAL_DATE_TIME ( #161, #125 ) ;
#106 = CARTESIAN_POINT ( 'NONE',  ( 8.728703347107830233E-15, -3.673940397442057896E-16, 2.499999999999999112 ) ) ;
#107 = PRODUCT_DEFINITION_FORMATION_WITH_SPECIFIED_SOURCE ( 'ANY', '', #65, .NOT_KNOWN. ) ;
#108 = DIRECTION ( 'NONE',  ( -3.491481338843133355E-15, 1.469576158976823553E-16, -1.000000000000000000 ) ) ;
#109 = PRODUCT_RELATED_PRODUCT_CATEGORY ( 'detail', '', ( #65 ) ) ;
#110 = CARTESIAN_POINT ( 'NONE',  ( 8.728703347107828655E-15, -3.673940397442057403E-16, 2.499999999999998668 ) ) ;
#111 = EDGE_CURVE ( 'NONE', #148, #148, #119, .T. ) ;
#112 = APPROVAL_DATE_TIME ( #75, #133 ) ;
#113 = APPROVAL_STATUS ( 'not_yet_approved' ) ;
#114 = CARTESIAN_POINT ( 'NONE',  ( -1.282749433769087582E-30, 5.399135217582685199E-32, -3.673940397442059375E-16 ) ) ;
#115 = VERTEX_POINT ( 'NONE', #164 ) ;
#116 = ADVANCED_FACE ( 'NONE', ( #40, #94 ), #156, .T. ) ;
#117 = SHAPE_DEFINITION_REPRESENTATION ( #50, #93 ) ;
#118 = DATE_AND_TIME ( #69, #30 ) ;
#119 = CIRCLE ( 'NONE', #159, 10.00000000000000000 ) ;
#120 = DIRECTION ( 'NONE',  ( -3.491481338843133355E-15, 1.469576158976823553E-16, -1.000000000000000000 ) ) ;
#121 = PERSON_AND_ORGANIZATION ( #23, #71 ) ;
#122 = LOCAL_TIME ( 13, 59, 27.00000000000000000, #35 ) ;
#123 = CARTESIAN_POINT ( 'NONE',  ( 0.0000000000000000000, 0.0000000000000000000, 0.0000000000000000000 ) ) ;
#124 = DIRECTION ( 'NONE',  ( 0.0000000000000000000, 0.0000000000000000000, 1.000000000000000000 ) ) ;
#125 = APPROVAL ( #162, 'UNSPECIFIED' ) ;
#126 = AXIS2_PLACEMENT_3D ( 'NONE', #26, #80, #130 ) ;
#127 = VERTEX_POINT ( 'NONE', #66 ) ;
#128 =( GEOMETRIC_REPRESENTATION_CONTEXT ( 3 ) GLOBAL_UNCERTAINTY_ASSIGNED_CONTEXT ( ( #62 ) ) GLOBAL_UNIT_ASSIGNED_CONTEXT ( ( #152, #14, #92 ) ) REPRESENTATION_CONTEXT ( 'NONE', 'WORKASPACE' ) );
#129 = COORDINATED_UNIVERSAL_TIME_OFFSET ( 1, 0, .AHEAD. ) ;
#130 = DIRECTION ( 'NONE',  ( 5.130997735076349802E-31, 1.000000000000000000, 1.469576158976823799E-16 ) ) ;
#131 = DIRECTION ( 'NONE',  ( 6.162975822039152978E-31, 1.000000000000000000, 1.734723475976806601E-16 ) ) ;
#132 = CARTESIAN_POINT ( 'NONE',  ( -1.924124150653631285E-30, 2.500000000000000000, -5.510910596163088569E-16 ) ) ;
#133 = APPROVAL ( #113, 'UNSPECIFIED' ) ;
#134 = EDGE_LOOP ( 'NONE', ( #98 ) ) ;
#135 = CIRCLE ( 'NONE', #64, 2.500000000000000888 ) ;
#136 = CALENDAR_DATE ( 2021, 6, 12 ) ;
#137 = CALENDAR_DATE ( 2021, 6, 12 ) ;
#138 = MECHANICAL_CONTEXT ( 'NONE', #3, 'mechanical' ) ;
#139 = CC_DESIGN_PERSON_AND_ORGANIZATION_ASSIGNMENT ( #52, #85, ( #65 ) ) ;
#140 = ADVANCED_FACE ( 'NONE', ( #37, #49 ), #63, .F. ) ;
#141 = APPLICATION_PROTOCOL_DEFINITION ( 'international standard', 'config_control_design', 1994, #29 ) ;
#142 = DATE_AND_TIME ( #136, #122 ) ;
#143 = ORIENTED_EDGE ( 'NONE', *, *, #167, .F. ) ;
#144 = ORIENTED_EDGE ( 'NONE', *, *, #111, .F. ) ;
#145 = EDGE_LOOP ( 'NONE', ( #56 ) ) ;
#146 = CALENDAR_DATE ( 2021, 6, 12 ) ;
#147 = PRODUCT_DEFINITION ( 'UNKNOWN', '', #107, #21 ) ;
#148 = VERTEX_POINT ( 'NONE', #76 ) ;
#149 = PERSON_AND_ORGANIZATION ( #23, #71 ) ;
#150 = CC_DESIGN_APPROVAL ( #125, ( #147 ) ) ;
#151 = PERSON_AND_ORGANIZATION ( #23, #71 ) ;
#152 =( LENGTH_UNIT ( ) NAMED_UNIT ( * ) SI_UNIT ( .MILLI., .METRE. ) );
#153 = PERSON_AND_ORGANIZATION ( #23, #71 ) ;
#154 = DIRECTION ( 'NONE',  ( 5.130997735076349802E-31, 1.000000000000000000, 1.469576158976823799E-16 ) ) ;
#155 = AXIS2_PLACEMENT_3D ( 'NONE', #15, #82, #68 ) ;
#156 = PLANE ( 'NONE',  #155 ) ;
#157 = CARTESIAN_POINT ( 'NONE',  ( -5.130997735076350328E-30, 2.159654087033074079E-31, -1.469576158976823750E-15 ) ) ;
#158 = DIRECTION ( 'NONE',  ( 4.622231866529366047E-31, 1.000000000000000000, 1.301042606982605321E-16 ) ) ;
#159 = AXIS2_PLACEMENT_3D ( 'NONE', #157, #41, #154 ) ;
#160 = EDGE_LOOP ( 'NONE', ( #42 ) ) ;
#161 = DATE_AND_TIME ( #137, #7 ) ;
#162 = APPROVAL_STATUS ( 'not_yet_approved' ) ;
#163 = CC_DESIGN_PERSON_AND_ORGANIZATION_ASSIGNMENT ( #46, #60, ( #107 ) ) ;
#164 = CARTESIAN_POINT ( 'NONE',  ( 8.728703347107831810E-15, 2.500000000000000444, 2.499999999999999556 ) ) ;
#165 = DATE_TIME_ROLE ( 'classification_date' ) ;
#166 = EDGE_LOOP ( 'NONE', ( #143 ) ) ;
#167 = EDGE_CURVE ( 'NONE', #127, #127, #70, .T. ) ;
#168 = APPROVAL_PERSON_ORGANIZATION ( #149, #59, #25 ) ;
#169 = PLANE ( 'NONE',  #51 ) ;
ENDSEC;
END-ISO-10303-21;
