ISO-10303-21;
HEADER;
FILE_DESCRIPTION (( 'STEP AP203' ),
    '1' );
FILE_NAME ('36648.step',
    '2021-12-06T12:59:26',
    ( '' ),
    ( '' ),
    'SwSTEP 2.0',
    'SolidWorks 2019',
    '' );
FILE_SCHEMA (( 'CONFIG_CONTROL_DESIGN' ));
ENDSEC;

DATA;
#1 = APPLICATION_PROTOCOL_DEFINITION ( 'international standard', 'config_control_design', 1994, #81 ) ;
#2 = AXIS2_PLACEMENT_3D ( 'NONE', #152, #86, #88 ) ;
#3 = APPROVAL_PERSON_ORGANIZATION ( #141, #107, #12 ) ;
#4 = ORIENTED_EDGE ( 'NONE', *, *, #100, .T. ) ;
#5 = CARTESIAN_POINT ( 'NONE',  ( 8.728703347107831810E-15, -3.673940397442058389E-16, 2.499999999999999556 ) ) ;
#6 = CC_DESIGN_DATE_AND_TIME_ASSIGNMENT ( #92, #93, ( #98 ) ) ;
#7 = PRODUCT_DEFINITION_SHAPE ( 'NONE', 'NONE',  #28 ) ;
#8 = DIRECTION ( 'NONE',  ( 5.130997735076349802E-31, 1.000000000000000000, 1.469576158976823799E-16 ) ) ;
#9 = CARTESIAN_POINT ( 'NONE',  ( -2.565498867538175164E-30, 1.079827043516537040E-31, -7.347880794884118750E-16 ) ) ;
#10 = DIRECTION ( 'NONE',  ( -3.491481338843133355E-15, 1.469576158976823553E-16, -1.000000000000000000 ) ) ;
#11 = CARTESIAN_POINT ( 'NONE',  ( 0.0000000000000000000, 0.0000000000000000000, 0.0000000000000000000 ) ) ;
#12 = APPROVAL_ROLE ( '' ) ;
#13 = APPLICATION_PROTOCOL_DEFINITION ( 'international standard', 'config_control_design', 1994, #70 ) ;
#14 = APPROVAL_STATUS ( 'not_yet_approved' ) ;
#15 = COORDINATED_UNIVERSAL_TIME_OFFSET ( 1, 0, .AHEAD. ) ;
#16 = AXIS2_PLACEMENT_3D ( 'NONE', #101, #24, #8 ) ;
#17 = CC_DESIGN_SECURITY_CLASSIFICATION ( #98, ( #52 ) ) ;
#18 = ORIENTED_EDGE ( 'NONE', *, *, #136, .T. ) ;
#19 = CIRCLE ( 'NONE', #124, 20.00000000000000355 ) ;
#20 = AXIS2_PLACEMENT_3D ( 'NONE', #11, #126, #89 ) ;
#21 = AXIS2_PLACEMENT_3D ( 'NONE', #72, #10, #151 ) ;
#22 = VERTEX_POINT ( 'NONE', #121 ) ;
#23 = DIRECTION ( 'NONE',  ( -3.491481338843133355E-15, 1.469576158976823553E-16, -1.000000000000000000 ) ) ;
#24 = DIRECTION ( 'NONE',  ( -3.491481338843133355E-15, 1.469576158976823553E-16, -1.000000000000000000 ) ) ;
#25 = CALENDAR_DATE ( 2021, 6, 12 ) ;
#26 = CIRCLE ( 'NONE', #54, 5.000000000000000000 ) ;
#27 = COORDINATED_UNIVERSAL_TIME_OFFSET ( 1, 0, .AHEAD. ) ;
#28 = PRODUCT_DEFINITION ( 'UNKNOWN', '', #52, #144 ) ;
#29 =( NAMED_UNIT ( * ) PLANE_ANGLE_UNIT ( ) SI_UNIT ( $, .RADIAN. ) );
#30 = APPROVAL_STATUS ( 'not_yet_approved' ) ;
#31 = MANIFOLD_SOLID_BREP ( 'Corps-Déplacer/Copier1', #163 ) ;
#32 = CC_DESIGN_DATE_AND_TIME_ASSIGNMENT ( #104, #94, ( #28 ) ) ;
#33 = ORGANIZATION ( 'UNSPECIFIED', 'UNSPECIFIED', '' ) ;
#34 = DIRECTION ( 'NONE',  ( 6.162975822039154730E-31, 1.000000000000000000, 1.734723475976807094E-16 ) ) ;
#35 = FACE_BOUND ( 'NONE', #117, .T. ) ;
#36 = DIRECTION ( 'NONE',  ( 5.130997735076349802E-31, 1.000000000000000000, 1.469576158976823799E-16 ) ) ;
#37 = FACE_BOUND ( 'NONE', #122, .T. ) ;
#38 = PERSON ( 'UNSPECIFIED', 'UNSPECIFIED', 'UNSPECIFIED', ('UNSPECIFIED'), ('UNSPECIFIED'), ('UNSPECIFIED') ) ;
#39 = EDGE_LOOP ( 'NONE', ( #53 ) ) ;
#40 = SHAPE_DEFINITION_REPRESENTATION ( #7, #74 ) ;
#41 = PERSON_AND_ORGANIZATION ( #38, #33 ) ;
#42 = APPROVAL_DATE_TIME ( #158, #44 ) ;
#43 = CALENDAR_DATE ( 2021, 6, 12 ) ;
#44 = APPROVAL ( #30, 'UNSPECIFIED' ) ;
#45 = CALENDAR_DATE ( 2021, 6, 12 ) ;
#46 = PERSON_AND_ORGANIZATION_ROLE ( 'design_supplier' ) ;
#47 = AXIS2_PLACEMENT_3D ( 'NONE', #133, #23, #145 ) ;
#48 = ORIENTED_EDGE ( 'NONE', *, *, #50, .T. ) ;
#49 = CC_DESIGN_PERSON_AND_ORGANIZATION_ASSIGNMENT ( #79, #67, ( #161 ) ) ;
#50 = EDGE_CURVE ( 'NONE', #22, #22, #143, .T. ) ;
#51 = FACE_OUTER_BOUND ( 'NONE', #96, .T. ) ;
#52 = PRODUCT_DEFINITION_FORMATION_WITH_SPECIFIED_SOURCE ( 'ANY', '', #161, .NOT_KNOWN. ) ;
#53 = ORIENTED_EDGE ( 'NONE', *, *, #132, .T. ) ;
#54 = AXIS2_PLACEMENT_3D ( 'NONE', #5, #55, #34 ) ;
#55 = DIRECTION ( 'NONE',  ( -3.491481338843133355E-15, 1.469576158976823553E-16, -1.000000000000000000 ) ) ;
#56 = PERSON_AND_ORGANIZATION ( #38, #33 ) ;
#57 = VERTEX_POINT ( 'NONE', #80 ) ;
#58 = APPROVAL_STATUS ( 'not_yet_approved' ) ;
#59 = APPROVAL_PERSON_ORGANIZATION ( #105, #142, #128 ) ;
#60 = ORIENTED_EDGE ( 'NONE', *, *, #132, .F. ) ;
#61 = ADVANCED_FACE ( 'NONE', ( #99, #51 ), #102, .T. ) ;
#62 = CARTESIAN_POINT ( 'NONE',  ( 8.728703347107822344E-15, -3.673940397442054445E-16, 2.499999999999996891 ) ) ;
#63 = DIRECTION ( 'NONE',  ( -3.491481338843133355E-15, 1.469576158976823553E-16, -1.000000000000000000 ) ) ;
#64 = AXIS2_PLACEMENT_3D ( 'NONE', #135, #76, #123 ) ;
#65 = PERSON_AND_ORGANIZATION ( #38, #33 ) ;
#66 = COORDINATED_UNIVERSAL_TIME_OFFSET ( 1, 0, .AHEAD. ) ;
#67 = PERSON_AND_ORGANIZATION_ROLE ( 'design_owner' ) ;
#68 = ORIENTED_EDGE ( 'NONE', *, *, #136, .F. ) ;
#69 = ADVANCED_FACE ( 'NONE', ( #137, #35 ), #97, .T. ) ;
#70 = APPLICATION_CONTEXT ( 'configuration controlled 3d designs of mechanical parts and assemblies' ) ;
#71 = DIRECTION ( 'NONE',  ( 5.392603844284259513E-31, 1.000000000000000000, 1.517883041479705961E-16 ) ) ;
#72 = CARTESIAN_POINT ( 'NONE',  ( -3.848248301307263271E-30, 5.000000000000000000, -1.102182119232617911E-15 ) ) ;
#73 = ADVANCED_FACE ( 'NONE', ( #131, #87 ), #134, .F. ) ;
#74 = ADVANCED_BREP_SHAPE_REPRESENTATION ( '36648', ( #31, #20 ), #139 ) ;
#75 = EDGE_LOOP ( 'NONE', ( #4 ) ) ;
#76 = DIRECTION ( 'NONE',  ( 3.491481338843133355E-15, -1.469576158976823553E-16, 1.000000000000000000 ) ) ;
#77 = PERSON_AND_ORGANIZATION ( #38, #33 ) ;
#78 = CALENDAR_DATE ( 2021, 6, 12 ) ;
#79 = PERSON_AND_ORGANIZATION ( #38, #33 ) ;
#80 = CARTESIAN_POINT ( 'NONE',  ( 8.728703347107834966E-15, 5.000000000000000000, 2.500000000000000444 ) ) ;
#81 = APPLICATION_CONTEXT ( 'configuration controlled 3d designs of mechanical parts and assemblies' ) ;
#82 = APPROVAL_ROLE ( '' ) ;
#83 = EDGE_LOOP ( 'NONE', ( #68 ) ) ;
#84 = PLANE ( 'NONE',  #64 ) ;
#85 = PRODUCT_RELATED_PRODUCT_CATEGORY ( 'detail', '', ( #161 ) ) ;
#86 = DIRECTION ( 'NONE',  ( -3.491481338843133355E-15, 1.469576158976823553E-16, -1.000000000000000000 ) ) ;
#87 = FACE_OUTER_BOUND ( 'NONE', #83, .T. ) ;
#88 = DIRECTION ( 'NONE',  ( 5.130997735076349802E-31, 1.000000000000000000, 1.469576158976823799E-16 ) ) ;
#89 = DIRECTION ( 'NONE',  ( 1.000000000000000000, 0.0000000000000000000, 0.0000000000000000000 ) ) ;
#90 = CC_DESIGN_APPROVAL ( #44, ( #52 ) ) ;
#91 = AXIS2_PLACEMENT_3D ( 'NONE', #9, #63, #36 ) ;
#92 = DATE_AND_TIME ( #78, #119 ) ;
#93 = DATE_TIME_ROLE ( 'classification_date' ) ;
#94 = DATE_TIME_ROLE ( 'creation_date' ) ;
#95 = CIRCLE ( 'NONE', #47, 20.00000000000000355 ) ;
#96 = EDGE_LOOP ( 'NONE', ( #60 ) ) ;
#97 = PLANE ( 'NONE',  #21 ) ;
#98 = SECURITY_CLASSIFICATION ( '', '', #125 ) ;
#99 = FACE_OUTER_BOUND ( 'NONE', #75, .T. ) ;
#100 = EDGE_CURVE ( 'NONE', #165, #165, #19, .T. ) ;
#101 = CARTESIAN_POINT ( 'NONE',  ( 0.0000000000000000000, 0.0000000000000000000, 0.0000000000000000000 ) ) ;
#102 = CYLINDRICAL_SURFACE ( 'NONE', #2, 20.00000000000000355 ) ;
#103 = DATE_AND_TIME ( #43, #130 ) ;
#104 = DATE_AND_TIME ( #25, #167 ) ;
#105 = PERSON_AND_ORGANIZATION ( #38, #33 ) ;
#106 = COORDINATED_UNIVERSAL_TIME_OFFSET ( 1, 0, .AHEAD. ) ;
#107 = APPROVAL ( #14, 'UNSPECIFIED' ) ;
#108 = APPROVAL_DATE_TIME ( #168, #142 ) ;
#109 = EDGE_LOOP ( 'NONE', ( #160 ) ) ;
#110 = EDGE_LOOP ( 'NONE', ( #48 ) ) ;
#111 = FACE_OUTER_BOUND ( 'NONE', #109, .T. ) ;
#112 = APPROVAL_PERSON_ORGANIZATION ( #77, #44, #82 ) ;
#113 = PERSON_AND_ORGANIZATION_ROLE ( 'classification_officer' ) ;
#114 = PERSON_AND_ORGANIZATION_ROLE ( 'creator' ) ;
#115 = ADVANCED_FACE ( 'NONE', ( #37, #111 ), #84, .T. ) ;
#116 = MECHANICAL_CONTEXT ( 'NONE', #70, 'mechanical' ) ;
#117 = EDGE_LOOP ( 'NONE', ( #149 ) ) ;
#118 = LOCAL_TIME ( 13, 59, 26.00000000000000000, #15 ) ;
#119 = LOCAL_TIME ( 13, 59, 26.00000000000000000, #27 ) ;
#120 = CC_DESIGN_PERSON_AND_ORGANIZATION_ASSIGNMENT ( #41, #46, ( #52 ) ) ;
#121 = CARTESIAN_POINT ( 'NONE',  ( -3.421138828918010427E-46, 5.000000000000000000, 0.0000000000000000000 ) ) ;
#122 = EDGE_LOOP ( 'NONE', ( #18 ) ) ;
#123 = DIRECTION ( 'NONE',  ( -5.130997735076348927E-31, -1.000000000000000000, -1.469576158976823553E-16 ) ) ;
#124 = AXIS2_PLACEMENT_3D ( 'NONE', #62, #148, #71 ) ;
#125 = SECURITY_CLASSIFICATION_LEVEL ( 'unclassified' ) ;
#126 = DIRECTION ( 'NONE',  ( 0.0000000000000000000, 0.0000000000000000000, 1.000000000000000000 ) ) ;
#127 =( NAMED_UNIT ( * ) SI_UNIT ( $, .STERADIAN. ) SOLID_ANGLE_UNIT ( ) );
#128 = APPROVAL_ROLE ( '' ) ;
#129 = CC_DESIGN_PERSON_AND_ORGANIZATION_ASSIGNMENT ( #65, #113, ( #98 ) ) ;
#130 = LOCAL_TIME ( 13, 59, 26.00000000000000000, #156 ) ;
#131 = FACE_OUTER_BOUND ( 'NONE', #110, .T. ) ;
#132 = EDGE_CURVE ( 'NONE', #140, #140, #95, .T. ) ;
#133 = CARTESIAN_POINT ( 'NONE',  ( -1.026199547015270206E-29, 4.319308174066149035E-31, -2.939152317953647894E-15 ) ) ;
#134 = CYLINDRICAL_SURFACE ( 'NONE', #16, 5.000000000000000000 ) ;
#135 = CARTESIAN_POINT ( 'NONE',  ( 8.728703347107830233E-15, 5.000000000000000000, 2.499999999999999112 ) ) ;
#136 = EDGE_CURVE ( 'NONE', #57, #57, #26, .T. ) ;
#137 = FACE_OUTER_BOUND ( 'NONE', #39, .T. ) ;
#138 = CALENDAR_DATE ( 2021, 6, 12 ) ;
#139 =( GEOMETRIC_REPRESENTATION_CONTEXT ( 3 ) GLOBAL_UNCERTAINTY_ASSIGNED_CONTEXT ( ( #162 ) ) GLOBAL_UNIT_ASSIGNED_CONTEXT ( ( #157, #29, #127 ) ) REPRESENTATION_CONTEXT ( 'NONE', 'WORKASPACE' ) );
#140 = VERTEX_POINT ( 'NONE', #169 ) ;
#141 = PERSON_AND_ORGANIZATION ( #38, #33 ) ;
#142 = APPROVAL ( #58, 'UNSPECIFIED' ) ;
#143 = CIRCLE ( 'NONE', #91, 5.000000000000000000 ) ;
#144 = DESIGN_CONTEXT ( 'detailed design', #81, 'design' ) ;
#145 = DIRECTION ( 'NONE',  ( 5.130997735076349802E-31, 1.000000000000000000, 1.469576158976823799E-16 ) ) ;
#146 = CC_DESIGN_APPROVAL ( #142, ( #28 ) ) ;
#147 = CC_DESIGN_APPROVAL ( #107, ( #98 ) ) ;
#148 = DIRECTION ( 'NONE',  ( -3.491481338843133355E-15, 1.469576158976823553E-16, -1.000000000000000000 ) ) ;
#149 = ORIENTED_EDGE ( 'NONE', *, *, #50, .F. ) ;
#150 = CC_DESIGN_PERSON_AND_ORGANIZATION_ASSIGNMENT ( #154, #114, ( #52 ) ) ;
#151 = DIRECTION ( 'NONE',  ( 5.130997735076348927E-31, 1.000000000000000000, 1.469576158976823553E-16 ) ) ;
#152 = CARTESIAN_POINT ( 'NONE',  ( 0.0000000000000000000, 0.0000000000000000000, 0.0000000000000000000 ) ) ;
#153 = APPROVAL_DATE_TIME ( #103, #107 ) ;
#154 = PERSON_AND_ORGANIZATION ( #38, #33 ) ;
#155 = PERSON_AND_ORGANIZATION_ROLE ( 'creator' ) ;
#156 = COORDINATED_UNIVERSAL_TIME_OFFSET ( 1, 0, .AHEAD. ) ;
#157 =( LENGTH_UNIT ( ) NAMED_UNIT ( * ) SI_UNIT ( .MILLI., .METRE. ) );
#158 = DATE_AND_TIME ( #138, #118 ) ;
#159 = CARTESIAN_POINT ( 'NONE',  ( 8.728703347107833388E-15, 20.00000000000000355, 2.500000000000000000 ) ) ;
#160 = ORIENTED_EDGE ( 'NONE', *, *, #100, .F. ) ;
#161 = PRODUCT ( '36648', '36648', '', ( #116 ) ) ;
#162 = UNCERTAINTY_MEASURE_WITH_UNIT (LENGTH_MEASURE( 1.000000000000000082E-05 ), #157, 'distance_accuracy_value', 'NONE');
#163 = CLOSED_SHELL ( 'NONE', ( #69, #61, #115, #73 ) ) ;
#164 = LOCAL_TIME ( 13, 59, 26.00000000000000000, #106 ) ;
#165 = VERTEX_POINT ( 'NONE', #159 ) ;
#166 = CC_DESIGN_PERSON_AND_ORGANIZATION_ASSIGNMENT ( #56, #155, ( #28 ) ) ;
#167 = LOCAL_TIME ( 13, 59, 26.00000000000000000, #66 ) ;
#168 = DATE_AND_TIME ( #45, #164 ) ;
#169 = CARTESIAN_POINT ( 'NONE',  ( -1.368455531567204171E-45, 20.00000000000000355, 0.0000000000000000000 ) ) ;
ENDSEC;
END-ISO-10303-21;
