ISO-10303-21;
HEADER;
FILE_DESCRIPTION (( 'STEP AP203' ),
    '1' );
FILE_NAME ('36647.step',
    '2021-12-06T12:59:25',
    ( '' ),
    ( '' ),
    'SwSTEP 2.0',
    'SolidWorks 2019',
    '' );
FILE_SCHEMA (( 'CONFIG_CONTROL_DESIGN' ));
ENDSEC;

DATA;
#1 = CARTESIAN_POINT ( 'NONE',  ( 2.094888803305874097E-15, -3.673940397442050500E-16, 0.5999999999999983125 ) ) ;
#2 = EDGE_LOOP ( 'NONE', ( #39 ) ) ;
#3 = EDGE_LOOP ( 'NONE', ( #103 ) ) ;
#4 = CC_DESIGN_PERSON_AND_ORGANIZATION_ASSIGNMENT ( #86, #19, ( #76 ) ) ;
#5 = PLANE ( 'NONE',  #85 ) ;
#6 = VERTEX_POINT ( 'NONE', #134 ) ;
#7 = APPROVAL_STATUS ( 'not_yet_approved' ) ;
#8 = AXIS2_PLACEMENT_3D ( 'NONE', #28, #160, #126 ) ;
#9 = PERSON_AND_ORGANIZATION_ROLE ( 'classification_officer' ) ;
#10 = APPROVAL ( #95, 'UNSPECIFIED' ) ;
#11 = CARTESIAN_POINT ( 'NONE',  ( -8.017183961056801460E-30, 2.500000000000000444, -2.296212748401288761E-15 ) ) ;
#12 = FACE_OUTER_BOUND ( 'NONE', #108, .T. ) ;
#13 = CARTESIAN_POINT ( 'NONE',  ( 0.0000000000000000000, 0.0000000000000000000, 0.0000000000000000000 ) ) ;
#14 = ORIENTED_EDGE ( 'NONE', *, *, #139, .T. ) ;
#15 = DIRECTION ( 'NONE',  ( 1.000000000000000000, 0.0000000000000000000, 0.0000000000000000000 ) ) ;
#16 = PLANE ( 'NONE',  #8 ) ;
#17 =( GEOMETRIC_REPRESENTATION_CONTEXT ( 3 ) GLOBAL_UNCERTAINTY_ASSIGNED_CONTEXT ( ( #27 ) ) GLOBAL_UNIT_ASSIGNED_CONTEXT ( ( #40, #109, #107 ) ) REPRESENTATION_CONTEXT ( 'NONE', 'WORKASPACE' ) );
#18 = APPLICATION_CONTEXT ( 'configuration controlled 3d designs of mechanical parts and assemblies' ) ;
#19 = PERSON_AND_ORGANIZATION_ROLE ( 'creator' ) ;
#20 = CYLINDRICAL_SURFACE ( 'NONE', #142, 10.00000000000000178 ) ;
#21 = CC_DESIGN_DATE_AND_TIME_ASSIGNMENT ( #98, #127, ( #165 ) ) ;
#22 = COORDINATED_UNIVERSAL_TIME_OFFSET ( 1, 0, .AHEAD. ) ;
#23 = DIRECTION ( 'NONE',  ( 2.137915722948480179E-30, 1.000000000000000000, 6.123233995736768255E-16 ) ) ;
#24 = EDGE_CURVE ( 'NONE', #80, #80, #152, .T. ) ;
#25 = DIRECTION ( 'NONE',  ( -3.491481338843133355E-15, 6.123233995736768255E-16, -1.000000000000000000 ) ) ;
#26 = DIRECTION ( 'NONE',  ( 2.137915722948480179E-30, 1.000000000000000000, 6.123233995736768255E-16 ) ) ;
#27 = UNCERTAINTY_MEASURE_WITH_UNIT (LENGTH_MEASURE( 1.000000000000000082E-05 ), #40, 'distance_accuracy_value', 'NONE');
#28 = CARTESIAN_POINT ( 'NONE',  ( 2.094888803305871730E-15, 2.500000000000002220, 0.5999999999999975353 ) ) ;
#29 = FACE_OUTER_BOUND ( 'NONE', #2, .T. ) ;
#30 = PERSON_AND_ORGANIZATION ( #164, #112 ) ;
#31 = APPLICATION_CONTEXT ( 'configuration controlled 3d designs of mechanical parts and assemblies' ) ;
#32 = DIRECTION ( 'NONE',  ( 0.0000000000000000000, 0.0000000000000000000, 1.000000000000000000 ) ) ;
#33 = CARTESIAN_POINT ( 'NONE',  ( 2.094888803305879224E-15, 2.500000000000002220, 0.5999999999999998668 ) ) ;
#34 = APPROVAL ( #101, 'UNSPECIFIED' ) ;
#35 = CALENDAR_DATE ( 2021, 6, 12 ) ;
#36 = CALENDAR_DATE ( 2021, 6, 12 ) ;
#37 = ORIENTED_EDGE ( 'NONE', *, *, #47, .F. ) ;
#38 = APPROVAL_PERSON_ORGANIZATION ( #147, #10, #149 ) ;
#39 = ORIENTED_EDGE ( 'NONE', *, *, #24, .T. ) ;
#40 =( LENGTH_UNIT ( ) NAMED_UNIT ( * ) SI_UNIT ( .MILLI., .METRE. ) );
#41 = EDGE_LOOP ( 'NONE', ( #104 ) ) ;
#42 = FACE_BOUND ( 'NONE', #68, .T. ) ;
#43 = VERTEX_POINT ( 'NONE', #163 ) ;
#44 = CIRCLE ( 'NONE', #141, 2.500000000000000444 ) ;
#45 = VERTEX_POINT ( 'NONE', #33 ) ;
#46 = PERSON_AND_ORGANIZATION ( #164, #112 ) ;
#47 = EDGE_CURVE ( 'NONE', #43, #43, #44, .T. ) ;
#48 = PERSON_AND_ORGANIZATION_ROLE ( 'design_supplier' ) ;
#49 = CC_DESIGN_APPROVAL ( #10, ( #114 ) ) ;
#50 = CC_DESIGN_APPROVAL ( #60, ( #165 ) ) ;
#51 = ADVANCED_FACE ( 'NONE', ( #124, #106 ), #144, .F. ) ;
#52 = EDGE_LOOP ( 'NONE', ( #118 ) ) ;
#53 = CC_DESIGN_PERSON_AND_ORGANIZATION_ASSIGNMENT ( #125, #96, ( #114 ) ) ;
#54 = CALENDAR_DATE ( 2021, 6, 12 ) ;
#55 = CARTESIAN_POINT ( 'NONE',  ( 0.0000000000000000000, 0.0000000000000000000, 0.0000000000000000000 ) ) ;
#56 = FACE_OUTER_BOUND ( 'NONE', #41, .T. ) ;
#57 = CARTESIAN_POINT ( 'NONE',  ( 0.0000000000000000000, 0.0000000000000000000, 0.0000000000000000000 ) ) ;
#58 = DIRECTION ( 'NONE',  ( -3.491481338843133355E-15, 6.123233995736768255E-16, -1.000000000000000000 ) ) ;
#59 = AXIS2_PLACEMENT_3D ( 'NONE', #1, #58, #169 ) ;
#60 = APPROVAL ( #7, 'UNSPECIFIED' ) ;
#61 = APPROVAL_PERSON_ORGANIZATION ( #46, #60, #62 ) ;
#62 = APPROVAL_ROLE ( '' ) ;
#63 = CC_DESIGN_PERSON_AND_ORGANIZATION_ASSIGNMENT ( #30, #151, ( #120 ) ) ;
#64 = AXIS2_PLACEMENT_3D ( 'NONE', #13, #32, #15 ) ;
#65 = COORDINATED_UNIVERSAL_TIME_OFFSET ( 1, 0, .AHEAD. ) ;
#66 = CC_DESIGN_DATE_AND_TIME_ASSIGNMENT ( #121, #115, ( #114 ) ) ;
#67 = DIRECTION ( 'NONE',  ( -3.491481338843133355E-15, 6.123233995736768255E-16, -1.000000000000000000 ) ) ;
#68 = EDGE_LOOP ( 'NONE', ( #14 ) ) ;
#69 = LOCAL_TIME ( 13, 59, 25.00000000000000000, #168 ) ;
#70 = FACE_BOUND ( 'NONE', #105, .T. ) ;
#71 = DATE_AND_TIME ( #84, #129 ) ;
#72 = APPROVAL_DATE_TIME ( #71, #10 ) ;
#73 = CIRCLE ( 'NONE', #167, 10.00000000000000178 ) ;
#74 = CALENDAR_DATE ( 2021, 6, 12 ) ;
#75 = DATE_AND_TIME ( #35, #123 ) ;
#76 = PRODUCT_DEFINITION_FORMATION_WITH_SPECIFIED_SOURCE ( 'ANY', '', #120, .NOT_KNOWN. ) ;
#77 = PERSON_AND_ORGANIZATION ( #164, #112 ) ;
#78 = ORIENTED_EDGE ( 'NONE', *, *, #97, .T. ) ;
#79 = DIRECTION ( 'NONE',  ( 2.137915722948480179E-30, 1.000000000000000000, 6.123233995736768255E-16 ) ) ;
#80 = VERTEX_POINT ( 'NONE', #119 ) ;
#81 = DIRECTION ( 'NONE',  ( -3.491481338843133355E-15, 6.123233995736768255E-16, -1.000000000000000000 ) ) ;
#82 = COORDINATED_UNIVERSAL_TIME_OFFSET ( 1, 0, .AHEAD. ) ;
#83 = APPLICATION_PROTOCOL_DEFINITION ( 'international standard', 'config_control_design', 1994, #18 ) ;
#84 = CALENDAR_DATE ( 2021, 6, 12 ) ;
#85 = AXIS2_PLACEMENT_3D ( 'NONE', #11, #67, #116 ) ;
#86 = PERSON_AND_ORGANIZATION ( #164, #112 ) ;
#87 = CLOSED_SHELL ( 'NONE', ( #113, #161, #166, #51 ) ) ;
#88 = CC_DESIGN_APPROVAL ( #34, ( #76 ) ) ;
#89 = PERSON_AND_ORGANIZATION ( #164, #112 ) ;
#90 = MANIFOLD_SOLID_BREP ( 'Corps-Déplacer/Copier1', #87 ) ;
#91 = EDGE_LOOP ( 'NONE', ( #92 ) ) ;
#92 = ORIENTED_EDGE ( 'NONE', *, *, #47, .T. ) ;
#93 = APPLICATION_PROTOCOL_DEFINITION ( 'international standard', 'config_control_design', 1994, #31 ) ;
#94 = CARTESIAN_POINT ( 'NONE',  ( 2.094888803305858714E-15, -3.673940397442023383E-16, 0.5999999999999938716 ) ) ;
#95 = APPROVAL_STATUS ( 'not_yet_approved' ) ;
#96 = PERSON_AND_ORGANIZATION_ROLE ( 'creator' ) ;
#97 = EDGE_CURVE ( 'NONE', #6, #6, #73, .T. ) ;
#98 = DATE_AND_TIME ( #74, #110 ) ;
#99 = AXIS2_PLACEMENT_3D ( 'NONE', #55, #159, #23 ) ;
#100 = APPROVAL_DATE_TIME ( #154, #60 ) ;
#101 = APPROVAL_STATUS ( 'not_yet_approved' ) ;
#102 = PERSON_AND_ORGANIZATION ( #164, #112 ) ;
#103 = ORIENTED_EDGE ( 'NONE', *, *, #139, .F. ) ;
#104 = ORIENTED_EDGE ( 'NONE', *, *, #24, .F. ) ;
#105 = EDGE_LOOP ( 'NONE', ( #37 ) ) ;
#106 = FACE_OUTER_BOUND ( 'NONE', #3, .T. ) ;
#107 =( NAMED_UNIT ( * ) SI_UNIT ( $, .STERADIAN. ) SOLID_ANGLE_UNIT ( ) );
#108 = EDGE_LOOP ( 'NONE', ( #78 ) ) ;
#109 =( NAMED_UNIT ( * ) PLANE_ANGLE_UNIT ( ) SI_UNIT ( $, .RADIAN. ) );
#110 = LOCAL_TIME ( 13, 59, 25.00000000000000000, #22 ) ;
#111 = AXIS2_PLACEMENT_3D ( 'NONE', #145, #25, #79 ) ;
#112 = ORGANIZATION ( 'UNSPECIFIED', 'UNSPECIFIED', '' ) ;
#113 = ADVANCED_FACE ( 'NONE', ( #29, #70 ), #5, .T. ) ;
#114 = PRODUCT_DEFINITION ( 'UNKNOWN', '', #76, #133 ) ;
#115 = DATE_TIME_ROLE ( 'creation_date' ) ;
#116 = DIRECTION ( 'NONE',  ( 2.137915722948480179E-30, 1.000000000000000000, 6.123233995736768255E-16 ) ) ;
#117 = CC_DESIGN_PERSON_AND_ORGANIZATION_ASSIGNMENT ( #77, #9, ( #165 ) ) ;
#118 = ORIENTED_EDGE ( 'NONE', *, *, #97, .F. ) ;
#119 = CARTESIAN_POINT ( 'NONE',  ( 2.736911063134408342E-45, 10.00000000000000178, 0.0000000000000000000 ) ) ;
#120 = PRODUCT ( '36647', '36647', '', ( #137 ) ) ;
#121 = DATE_AND_TIME ( #54, #150 ) ;
#122 = CC_DESIGN_PERSON_AND_ORGANIZATION_ASSIGNMENT ( #89, #48, ( #76 ) ) ;
#123 = LOCAL_TIME ( 13, 59, 25.00000000000000000, #65 ) ;
#124 = FACE_OUTER_BOUND ( 'NONE', #91, .T. ) ;
#125 = PERSON_AND_ORGANIZATION ( #164, #112 ) ;
#126 = DIRECTION ( 'NONE',  ( -2.137915722948480179E-30, -1.000000000000000000, -6.123233995736768255E-16 ) ) ;
#127 = DATE_TIME_ROLE ( 'classification_date' ) ;
#128 = SECURITY_CLASSIFICATION_LEVEL ( 'unclassified' ) ;
#129 = LOCAL_TIME ( 13, 59, 25.00000000000000000, #82 ) ;
#130 = APPROVAL_PERSON_ORGANIZATION ( #102, #34, #143 ) ;
#131 = SHAPE_DEFINITION_REPRESENTATION ( #135, #153 ) ;
#132 = CARTESIAN_POINT ( 'NONE',  ( -5.344789307371200973E-30, 9.373498641636618260E-31, -1.530808498934192310E-15 ) ) ;
#133 = DESIGN_CONTEXT ( 'detailed design', #31, 'design' ) ;
#134 = CARTESIAN_POINT ( 'NONE',  ( 2.094888803305880013E-15, 10.00000000000000178, 0.5999999999999999778 ) ) ;
#135 = PRODUCT_DEFINITION_SHAPE ( 'NONE', 'NONE',  #114 ) ;
#136 = DIRECTION ( 'NONE',  ( -3.491481338843133355E-15, 6.123233995736768255E-16, -1.000000000000000000 ) ) ;
#137 = MECHANICAL_CONTEXT ( 'NONE', #18, 'mechanical' ) ;
#138 = FACE_OUTER_BOUND ( 'NONE', #52, .T. ) ;
#139 = EDGE_CURVE ( 'NONE', #45, #45, #155, .T. ) ;
#140 = COORDINATED_UNIVERSAL_TIME_OFFSET ( 1, 0, .AHEAD. ) ;
#141 = AXIS2_PLACEMENT_3D ( 'NONE', #132, #146, #26 ) ;
#142 = AXIS2_PLACEMENT_3D ( 'NONE', #57, #136, #158 ) ;
#143 = APPROVAL_ROLE ( '' ) ;
#144 = CYLINDRICAL_SURFACE ( 'NONE', #99, 2.500000000000001332 ) ;
#145 = CARTESIAN_POINT ( 'NONE',  ( -2.137915722948480389E-29, 3.749399456654647304E-30, -6.123233995736769241E-15 ) ) ;
#146 = DIRECTION ( 'NONE',  ( -3.491481338843133355E-15, 6.123233995736768255E-16, -1.000000000000000000 ) ) ;
#147 = PERSON_AND_ORGANIZATION ( #164, #112 ) ;
#148 = DIRECTION ( 'NONE',  ( 2.157041537713703805E-30, 1.000000000000000000, 6.071532165918823844E-16 ) ) ;
#149 = APPROVAL_ROLE ( '' ) ;
#150 = LOCAL_TIME ( 13, 59, 25.00000000000000000, #140 ) ;
#151 = PERSON_AND_ORGANIZATION_ROLE ( 'design_owner' ) ;
#152 = CIRCLE ( 'NONE', #111, 10.00000000000000178 ) ;
#153 = ADVANCED_BREP_SHAPE_REPRESENTATION ( '36647', ( #90, #64 ), #17 ) ;
#154 = DATE_AND_TIME ( #36, #69 ) ;
#155 = CIRCLE ( 'NONE', #59, 2.500000000000002665 ) ;
#156 = APPROVAL_DATE_TIME ( #75, #34 ) ;
#157 = CC_DESIGN_SECURITY_CLASSIFICATION ( #165, ( #76 ) ) ;
#158 = DIRECTION ( 'NONE',  ( 2.137915722948480179E-30, 1.000000000000000000, 6.123233995736768255E-16 ) ) ;
#159 = DIRECTION ( 'NONE',  ( -3.491481338843133355E-15, 6.123233995736768255E-16, -1.000000000000000000 ) ) ;
#160 = DIRECTION ( 'NONE',  ( 3.491481338843133355E-15, -6.123233995736768255E-16, 1.000000000000000000 ) ) ;
#161 = ADVANCED_FACE ( 'NONE', ( #12, #56 ), #20, .T. ) ;
#162 = PRODUCT_RELATED_PRODUCT_CATEGORY ( 'detail', '', ( #120 ) ) ;
#163 = CARTESIAN_POINT ( 'NONE',  ( 6.842277657836020854E-46, 2.500000000000000444, 0.0000000000000000000 ) ) ;
#164 = PERSON ( 'UNSPECIFIED', 'UNSPECIFIED', 'UNSPECIFIED', ('UNSPECIFIED'), ('UNSPECIFIED'), ('UNSPECIFIED') ) ;
#165 = SECURITY_CLASSIFICATION ( '', '', #128 ) ;
#166 = ADVANCED_FACE ( 'NONE', ( #42, #138 ), #16, .T. ) ;
#167 = AXIS2_PLACEMENT_3D ( 'NONE', #94, #81, #148 ) ;
#168 = COORDINATED_UNIVERSAL_TIME_OFFSET ( 1, 0, .AHEAD. ) ;
#169 = DIRECTION ( 'NONE',  ( 2.157041537713701703E-30, 1.000000000000000000, 6.071532165918817928E-16 ) ) ;
ENDSEC;
END-ISO-10303-21;
