ISO-10303-21;
HEADER;
FILE_DESCRIPTION (( 'STEP AP203' ),
    '1' );
FILE_NAME ('36607.step',
    '2021-11-12T07:08:17',
    ( '' ),
    ( '' ),
    'SwSTEP 2.0',
    'SolidWorks 2019',
    '' );
FILE_SCHEMA (( 'CONFIG_CONTROL_DESIGN' ));
ENDSEC;

DATA;
#1 = ORIENTED_EDGE ( 'NONE', *, *, #126, .T. ) ;
#2 = ADVANCED_BREP_SHAPE_REPRESENTATION ( '36607', ( #107, #28, #129 ), #54 ) ;
#3 = LOCAL_TIME ( 8, 8, 17.00000000000000000, #243 ) ;
#4 = DIRECTION ( 'NONE',  ( -3.491481338843133355E-15, 1.224646799147353207E-16, -1.000000000000000000 ) ) ;
#5 = ADVANCED_FACE ( 'NONE', ( #232, #47 ), #170, .F. ) ;
#6 = FACE_BOUND ( 'NONE', #111, .T. ) ;
#7 = AXIS2_PLACEMENT_3D ( 'NONE', #131, #172, #64 ) ;
#8 = PLANE ( 'NONE',  #71 ) ;
#9 = LOCAL_TIME ( 8, 8, 17.00000000000000000, #55 ) ;
#10 = DIRECTION ( 'NONE',  ( 3.491481338843133355E-15, -1.223397583181748052E-16, 1.000000000000000000 ) ) ;
#11 = DIRECTION ( 'NONE',  ( 4.275831445896958607E-31, 1.000000000000000000, 1.224646799147353207E-16 ) ) ;
#12 = DESIGN_CONTEXT ( 'detailed design', #198, 'design' ) ;
#13 = VERTEX_POINT ( 'NONE', #180 ) ;
#14 = APPROVAL_PERSON_ORGANIZATION ( #224, #22, #211 ) ;
#15 = PERSON_AND_ORGANIZATION ( #225, #145 ) ;
#16 = EDGE_LOOP ( 'NONE', ( #187 ) ) ;
#17 = PERSON_AND_ORGANIZATION ( #225, #145 ) ;
#18 = DATE_AND_TIME ( #130, #86 ) ;
#19 = DATE_TIME_ROLE ( 'classification_date' ) ;
#20 = DIRECTION ( 'NONE',  ( -3.491481338843133355E-15, 1.224646799147353207E-16, -1.000000000000000000 ) ) ;
#21 = LOCAL_TIME ( 8, 8, 17.00000000000000000, #56 ) ;
#22 = APPROVAL ( #113, 'UNSPECIFIED' ) ;
#23 = FACE_OUTER_BOUND ( 'NONE', #169, .T. ) ;
#24 = CARTESIAN_POINT ( 'NONE',  ( 3.491481338843133355E-16, 0.0000000000000000000, 0.1000000000000000056 ) ) ;
#25 = CARTESIAN_POINT ( 'NONE',  ( 2.793185071074506684E-14, -9.787180665453984414E-16, 8.000000000000000000 ) ) ;
#26 = CARTESIAN_POINT ( 'NONE',  ( -6.413747168845438786E-31, 2.249639673992786412E-32, -1.836970198721029934E-16 ) ) ;
#27 = DATE_TIME_ROLE ( 'creation_date' ) ;
#28 = MANIFOLD_SOLID_BREP ( 'Corps-Déplacer/Copier1[2]', #181 ) ;
#29 = CARTESIAN_POINT ( 'NONE',  ( 1.724791781388508004E-13, 2.999999999999995559, 49.39999999999999858 ) ) ;
#30 = EDGE_CURVE ( 'NONE', #201, #201, #135, .T. ) ;
#31 = CIRCLE ( 'NONE', #165, 2.400000000000002132 ) ;
#32 = CARTESIAN_POINT ( 'NONE',  ( 4.145429978967849814E-14, 2.999999999999998668, 11.87298334620741791 ) ) ;
#33 =( LENGTH_UNIT ( ) NAMED_UNIT ( * ) SI_UNIT ( .MILLI., .METRE. ) );
#34 = CIRCLE ( 'NONE', #97, 3.000000000000001776 ) ;
#35 = CALENDAR_DATE ( 2021, 12, 11 ) ;
#36 = ORIENTED_EDGE ( 'NONE', *, *, #42, .T. ) ;
#37 = CC_DESIGN_PERSON_AND_ORGANIZATION_ASSIGNMENT ( #15, #222, ( #68 ) ) ;
#38 = CIRCLE ( 'NONE', #174, 1.999999999999999112 ) ;
#39 = ADVANCED_FACE ( 'NONE', ( #194, #188 ), #120, .T. ) ;
#40 = CIRCLE ( 'NONE', #106, 1.999999999999999112 ) ;
#41 = EDGE_LOOP ( 'NONE', ( #93 ) ) ;
#42 = EDGE_CURVE ( 'NONE', #69, #69, #34, .T. ) ;
#43 = ORIENTED_EDGE ( 'NONE', *, *, #117, .T. ) ;
#44 = ORIENTED_EDGE ( 'NONE', *, *, #52, .T. ) ;
#45 = LOCAL_TIME ( 8, 8, 17.00000000000000000, #75 ) ;
#46 = PRODUCT ( '36607', '36607', '', ( #110 ) ) ;
#47 = FACE_OUTER_BOUND ( 'NONE', #109, .T. ) ;
#48 = DIRECTION ( 'NONE',  ( 3.491481338843133355E-15, -1.224646799147353207E-16, 1.000000000000000000 ) ) ;
#49 = CARTESIAN_POINT ( 'NONE',  ( 3.491481338843133355E-16, 0.0000000000000000000, 0.1000000000000000056 ) ) ;
#50 = DIRECTION ( 'NONE',  ( -4.330481597005440263E-31, -1.000000000000000000, -1.223397583181748052E-16 ) ) ;
#51 = VERTEX_POINT ( 'NONE', #122 ) ;
#52 = EDGE_CURVE ( 'NONE', #219, #219, #38, .T. ) ;
#53 = FACE_OUTER_BOUND ( 'NONE', #204, .T. ) ;
#54 =( GEOMETRIC_REPRESENTATION_CONTEXT ( 3 ) GLOBAL_UNCERTAINTY_ASSIGNED_CONTEXT ( ( #195 ) ) GLOBAL_UNIT_ASSIGNED_CONTEXT ( ( #33, #163, #123 ) ) REPRESENTATION_CONTEXT ( 'NONE', 'WORKASPACE' ) );
#55 = COORDINATED_UNIVERSAL_TIME_OFFSET ( 1, 0, .AHEAD. ) ;
#56 = COORDINATED_UNIVERSAL_TIME_OFFSET ( 1, 0, .AHEAD. ) ;
#57 = EDGE_LOOP ( 'NONE', ( #128 ) ) ;
#58 = PERSON_AND_ORGANIZATION_ROLE ( 'design_supplier' ) ;
#59 = APPROVAL_ROLE ( '' ) ;
#60 = APPROVAL_DATE_TIME ( #209, #22 ) ;
#61 = ORIENTED_EDGE ( 'NONE', *, *, #42, .F. ) ;
#62 = EDGE_LOOP ( 'NONE', ( #229 ) ) ;
#63 = CONICAL_SURFACE ( 'NONE', #115, 3.000000000000001776, 0.7853981633974453924 ) ;
#64 = DIRECTION ( 'NONE',  ( -4.271469831664863477E-31, -1.000000000000000000, -1.223397583181748052E-16 ) ) ;
#65 = CARTESIAN_POINT ( 'NONE',  ( 2.793185071074506684E-14, 2.249639673992785317E-32, 8.000000000000000000 ) ) ;
#66 = DIRECTION ( 'NONE',  ( 0.0000000000000000000, 1.000000000000000000, 0.0000000000000000000 ) ) ;
#67 = CC_DESIGN_APPROVAL ( #230, ( #150 ) ) ;
#68 = PRODUCT_DEFINITION ( 'UNKNOWN', '', #227, #12 ) ;
#69 = VERTEX_POINT ( 'NONE', #29 ) ;
#70 = CARTESIAN_POINT ( 'NONE',  ( 0.0000000000000000000, 0.0000000000000000000, 0.0000000000000000000 ) ) ;
#71 = AXIS2_PLACEMENT_3D ( 'NONE', #26, #20, #11 ) ;
#72 = DIRECTION ( 'NONE',  ( 1.000000000000000000, 0.0000000000000000000, 0.0000000000000000000 ) ) ;
#73 = APPLICATION_PROTOCOL_DEFINITION ( 'international standard', 'config_control_design', 1994, #198 ) ;
#74 = ORIENTED_EDGE ( 'NONE', *, *, #117, .F. ) ;
#75 = COORDINATED_UNIVERSAL_TIME_OFFSET ( 1, 0, .AHEAD. ) ;
#76 = AXIS2_PLACEMENT_3D ( 'NONE', #137, #216, #233 ) ;
#77 = PRODUCT_RELATED_PRODUCT_CATEGORY ( 'detail', '', ( #46 ) ) ;
#78 = COORDINATED_UNIVERSAL_TIME_OFFSET ( 1, 0, .AHEAD. ) ;
#79 = EDGE_LOOP ( 'NONE', ( #61 ) ) ;
#80 = AXIS2_PLACEMENT_3D ( 'NONE', #99, #155, #50 ) ;
#81 = EDGE_LOOP ( 'NONE', ( #36 ) ) ;
#82 = FACE_OUTER_BOUND ( 'NONE', #62, .T. ) ;
#83 = FACE_OUTER_BOUND ( 'NONE', #41, .T. ) ;
#84 = ADVANCED_FACE ( 'NONE', ( #104 ), #8, .T. ) ;
#85 = ORIENTED_EDGE ( 'NONE', *, *, #166, .F. ) ;
#86 = LOCAL_TIME ( 8, 8, 17.00000000000000000, #78 ) ;
#87 = CARTESIAN_POINT ( 'NONE',  ( 1.745740669421566678E-13, 1.799711739194221740E-32, 50.00000000000000000 ) ) ;
#88 = CARTESIAN_POINT ( 'NONE',  ( -4.731839565957903391E-32, 0.0000000000000000000, -1.355252715606880543E-17 ) ) ;
#89 = DIRECTION ( 'NONE',  ( 0.0000000000000000000, 1.000000000000000000, 0.0000000000000000000 ) ) ;
#90 = CC_DESIGN_SECURITY_CLASSIFICATION ( #150, ( #227 ) ) ;
#91 = CLOSED_SHELL ( 'NONE', ( #239, #221, #121, #5, #154 ) ) ;
#92 = CARTESIAN_POINT ( 'NONE',  ( 1.724791781388508004E-13, -6.049755187787925154E-15, 49.39999999999999858 ) ) ;
#93 = ORIENTED_EDGE ( 'NONE', *, *, #30, .F. ) ;
#94 = PERSON_AND_ORGANIZATION_ROLE ( 'creator' ) ;
#95 = DATE_AND_TIME ( #185, #3 ) ;
#96 = ORIENTED_EDGE ( 'NONE', *, *, #192, .F. ) ;
#97 = AXIS2_PLACEMENT_3D ( 'NONE', #134, #193, #217 ) ;
#98 = SHAPE_DEFINITION_REPRESENTATION ( #151, #2 ) ;
#99 = CARTESIAN_POINT ( 'NONE',  ( 2.793185071074506053E-14, -1.734723475976807094E-15, 7.999999999999998224 ) ) ;
#100 = DIRECTION ( 'NONE',  ( -4.275831445896958607E-31, -1.000000000000000000, -1.224646799147353207E-16 ) ) ;
#101 = AXIS2_PLACEMENT_3D ( 'NONE', #49, #231, #136 ) ;
#102 = DIRECTION ( 'NONE',  ( 3.491481338843133355E-15, -0.0000000000000000000, 1.000000000000000000 ) ) ;
#103 = DIRECTION ( 'NONE',  ( -3.491481338843133355E-15, 1.224646799147353207E-16, -1.000000000000000000 ) ) ;
#104 = FACE_OUTER_BOUND ( 'NONE', #57, .T. ) ;
#105 = VERTEX_POINT ( 'NONE', #32 ) ;
#106 = AXIS2_PLACEMENT_3D ( 'NONE', #133, #116, #215 ) ;
#107 = MANIFOLD_SOLID_BREP ( 'Corps-Déplacer/Copier1[1]', #91 ) ;
#108 = CALENDAR_DATE ( 2021, 12, 11 ) ;
#109 = EDGE_LOOP ( 'NONE', ( #44 ) ) ;
#110 = MECHANICAL_CONTEXT ( 'NONE', #142, 'mechanical' ) ;
#111 = EDGE_LOOP ( 'NONE', ( #1 ) ) ;
#112 = APPROVAL_PERSON_ORGANIZATION ( #164, #230, #59 ) ;
#113 = APPROVAL_STATUS ( 'not_yet_approved' ) ;
#114 = APPROVAL_PERSON_ORGANIZATION ( #124, #184, #220 ) ;
#115 = AXIS2_PLACEMENT_3D ( 'NONE', #92, #203, #89 ) ;
#116 = DIRECTION ( 'NONE',  ( 3.491481338843133355E-15, -1.223397583181748052E-16, 1.000000000000000000 ) ) ;
#117 = EDGE_CURVE ( 'NONE', #105, #105, #238, .T. ) ;
#118 = DIRECTION ( 'NONE',  ( 0.0000000000000000000, 1.000000000000000000, 0.0000000000000000000 ) ) ;
#119 = FACE_BOUND ( 'NONE', #16, .T. ) ;
#120 = CYLINDRICAL_SURFACE ( 'NONE', #7, 1.999999999999999556 ) ;
#121 = ADVANCED_FACE ( 'NONE', ( #153 ), #177, .F. ) ;
#122 = CARTESIAN_POINT ( 'NONE',  ( 1.899999999999999689, 0.0000000000000000000, -6.647367070958021392E-15 ) ) ;
#123 =( NAMED_UNIT ( * ) SI_UNIT ( $, .STERADIAN. ) SOLID_ANGLE_UNIT ( ) );
#124 = PERSON_AND_ORGANIZATION ( #225, #145 ) ;
#125 = CIRCLE ( 'NONE', #132, 1.899999999999999689 ) ;
#126 = EDGE_CURVE ( 'NONE', #51, #51, #125, .T. ) ;
#127 = DATE_AND_TIME ( #35, #21 ) ;
#128 = ORIENTED_EDGE ( 'NONE', *, *, #126, .F. ) ;
#129 = AXIS2_PLACEMENT_3D ( 'NONE', #70, #139, #72 ) ;
#130 = CALENDAR_DATE ( 2021, 12, 11 ) ;
#131 = CARTESIAN_POINT ( 'NONE',  ( 0.0000000000000000000, 0.0000000000000000000, 0.0000000000000000000 ) ) ;
#132 = AXIS2_PLACEMENT_3D ( 'NONE', #88, #235, #214 ) ;
#133 = CARTESIAN_POINT ( 'NONE',  ( 2.793185071074506684E-14, -9.787180665453984414E-16, 8.000000000000000000 ) ) ;
#134 = CARTESIAN_POINT ( 'NONE',  ( 1.724791781388508004E-13, -6.049755187787925154E-15, 49.39999999999999858 ) ) ;
#135 = CIRCLE ( 'NONE', #101, 2.000000000000000000 ) ;
#136 = DIRECTION ( 'NONE',  ( 1.000000000000000000, 0.0000000000000000000, -3.489775742687717397E-15 ) ) ;
#137 = CARTESIAN_POINT ( 'NONE',  ( 2.793185071074506684E-14, 2.249639673992785317E-32, 8.000000000000000000 ) ) ;
#138 = CARTESIAN_POINT ( 'NONE',  ( 2.793185071074506684E-14, -2.000000000000000000, 8.000000000000000000 ) ) ;
#139 = DIRECTION ( 'NONE',  ( 0.0000000000000000000, 0.0000000000000000000, 1.000000000000000000 ) ) ;
#140 = APPROVAL_STATUS ( 'not_yet_approved' ) ;
#141 = CC_DESIGN_APPROVAL ( #184, ( #68 ) ) ;
#142 = APPLICATION_CONTEXT ( 'configuration controlled 3d designs of mechanical parts and assemblies' ) ;
#143 = EDGE_LOOP ( 'NONE', ( #96 ) ) ;
#144 = APPROVAL_DATE_TIME ( #182, #184 ) ;
#145 = ORGANIZATION ( 'UNSPECIFIED', 'UNSPECIFIED', '' ) ;
#146 = PERSON_AND_ORGANIZATION_ROLE ( 'classification_officer' ) ;
#147 = CC_DESIGN_PERSON_AND_ORGANIZATION_ASSIGNMENT ( #210, #58, ( #227 ) ) ;
#148 = EDGE_LOOP ( 'NONE', ( #74 ) ) ;
#149 = PLANE ( 'NONE',  #157 ) ;
#150 = SECURITY_CLASSIFICATION ( '', '', #205 ) ;
#151 = PRODUCT_DEFINITION_SHAPE ( 'NONE', 'NONE',  #68 ) ;
#152 = DIRECTION ( 'NONE',  ( 3.491481338843133355E-15, -1.223397583181748052E-16, 1.000000000000000000 ) ) ;
#153 = FACE_OUTER_BOUND ( 'NONE', #143, .T. ) ;
#154 = ADVANCED_FACE ( 'NONE', ( #23 ), #190, .F. ) ;
#155 = DIRECTION ( 'NONE',  ( 3.491481338843133355E-15, -1.223397583181748052E-16, 1.000000000000000000 ) ) ;
#156 = FACE_OUTER_BOUND ( 'NONE', #81, .T. ) ;
#157 = AXIS2_PLACEMENT_3D ( 'NONE', #65, #48, #100 ) ;
#158 = CC_DESIGN_PERSON_AND_ORGANIZATION_ASSIGNMENT ( #17, #161, ( #46 ) ) ;
#159 = APPLICATION_PROTOCOL_DEFINITION ( 'international standard', 'config_control_design', 1994, #142 ) ;
#160 = AXIS2_PLACEMENT_3D ( 'NONE', #173, #152, #66 ) ;
#161 = PERSON_AND_ORGANIZATION_ROLE ( 'design_owner' ) ;
#162 = CYLINDRICAL_SURFACE ( 'NONE', #200, 3.000000000000000888 ) ;
#163 =( NAMED_UNIT ( * ) PLANE_ANGLE_UNIT ( ) SI_UNIT ( $, .RADIAN. ) );
#164 = PERSON_AND_ORGANIZATION ( #225, #145 ) ;
#165 = AXIS2_PLACEMENT_3D ( 'NONE', #218, #4, #118 ) ;
#166 = EDGE_CURVE ( 'NONE', #199, #199, #40, .T. ) ;
#167 = PERSON_AND_ORGANIZATION ( #225, #145 ) ;
#168 = APPROVAL_DATE_TIME ( #95, #230 ) ;
#169 = EDGE_LOOP ( 'NONE', ( #213 ) ) ;
#170 = TOROIDAL_SURFACE ( 'NONE', #80, 10.00000000000000000, 8.000000000000000000 ) ;
#171 = APPROVAL_STATUS ( 'not_yet_approved' ) ;
#172 = DIRECTION ( 'NONE',  ( 3.491481338843133355E-15, -1.223397583181748052E-16, 1.000000000000000000 ) ) ;
#173 = CARTESIAN_POINT ( 'NONE',  ( 4.145429978967849814E-14, -2.208543322522138576E-15, 11.87298334620741791 ) ) ;
#174 = AXIS2_PLACEMENT_3D ( 'NONE', #25, #10, #191 ) ;
#175 = DIRECTION ( 'NONE',  ( 1.000000000000000000, 0.0000000000000000000, -3.489775742687717397E-15 ) ) ;
#176 = FACE_OUTER_BOUND ( 'NONE', #79, .T. ) ;
#177 = PLANE ( 'NONE',  #189 ) ;
#178 = CARTESIAN_POINT ( 'NONE',  ( 2.793185071074506684E-14, -2.000000000000000000, 8.000000000000000000 ) ) ;
#179 = DIRECTION ( 'NONE',  ( -3.491481338843133355E-15, 1.224646799147353207E-16, -1.000000000000000000 ) ) ;
#180 = CARTESIAN_POINT ( 'NONE',  ( 1.745740669421566678E-13, 2.399999999999995914, 50.00000000000000000 ) ) ;
#181 = CLOSED_SHELL ( 'NONE', ( #39, #202, #212, #84 ) ) ;
#182 = DATE_AND_TIME ( #108, #9 ) ;
#183 = EDGE_LOOP ( 'NONE', ( #223 ) ) ;
#184 = APPROVAL ( #140, 'UNSPECIFIED' ) ;
#185 = CALENDAR_DATE ( 2021, 12, 11 ) ;
#186 = AXIS2_PLACEMENT_3D ( 'NONE', #24, #102, #175 ) ;
#187 = ORIENTED_EDGE ( 'NONE', *, *, #192, .T. ) ;
#188 = FACE_OUTER_BOUND ( 'NONE', #183, .T. ) ;
#189 = AXIS2_PLACEMENT_3D ( 'NONE', #87, #103, #234 ) ;
#190 = PLANE ( 'NONE',  #76 ) ;
#191 = DIRECTION ( 'NONE',  ( 0.0000000000000000000, -1.000000000000000000, 0.0000000000000000000 ) ) ;
#192 = EDGE_CURVE ( 'NONE', #13, #13, #31, .T. ) ;
#193 = DIRECTION ( 'NONE',  ( -3.491481338843133355E-15, 1.224646799147353207E-16, -1.000000000000000000 ) ) ;
#194 = FACE_OUTER_BOUND ( 'NONE', #241, .T. ) ;
#195 = UNCERTAINTY_MEASURE_WITH_UNIT (LENGTH_MEASURE( 1.000000000000000082E-05 ), #33, 'distance_accuracy_value', 'NONE');
#196 = CARTESIAN_POINT ( 'NONE',  ( 0.0000000000000000000, 0.0000000000000000000, 0.0000000000000000000 ) ) ;
#197 = CC_DESIGN_DATE_AND_TIME_ASSIGNMENT ( #18, #19, ( #150 ) ) ;
#198 = APPLICATION_CONTEXT ( 'configuration controlled 3d designs of mechanical parts and assemblies' ) ;
#199 = VERTEX_POINT ( 'NONE', #178 ) ;
#200 = AXIS2_PLACEMENT_3D ( 'NONE', #196, #179, #237 ) ;
#201 = VERTEX_POINT ( 'NONE', #240 ) ;
#202 = ADVANCED_FACE ( 'NONE', ( #82 ), #149, .T. ) ;
#203 = DIRECTION ( 'NONE',  ( -3.491481338843133355E-15, 1.224646799147353207E-16, -1.000000000000000000 ) ) ;
#204 = EDGE_LOOP ( 'NONE', ( #43 ) ) ;
#205 = SECURITY_CLASSIFICATION_LEVEL ( 'unclassified' ) ;
#206 = CONICAL_SURFACE ( 'NONE', #186, 2.000000000000000000, 0.7853981633974495002 ) ;
#207 = CALENDAR_DATE ( 2021, 12, 11 ) ;
#208 = CC_DESIGN_DATE_AND_TIME_ASSIGNMENT ( #127, #27, ( #68 ) ) ;
#209 = DATE_AND_TIME ( #207, #45 ) ;
#210 = PERSON_AND_ORGANIZATION ( #225, #145 ) ;
#211 = APPROVAL_ROLE ( '' ) ;
#212 = ADVANCED_FACE ( 'NONE', ( #6, #83 ), #206, .T. ) ;
#213 = ORIENTED_EDGE ( 'NONE', *, *, #52, .F. ) ;
#214 = DIRECTION ( 'NONE',  ( 1.000000000000000000, 0.0000000000000000000, -3.491481338843133355E-15 ) ) ;
#215 = DIRECTION ( 'NONE',  ( 0.0000000000000000000, -1.000000000000000000, 0.0000000000000000000 ) ) ;
#216 = DIRECTION ( 'NONE',  ( 3.491481338843133355E-15, -1.224646799147353207E-16, 1.000000000000000000 ) ) ;
#217 = DIRECTION ( 'NONE',  ( 0.0000000000000000000, 1.000000000000000000, 0.0000000000000000000 ) ) ;
#218 = CARTESIAN_POINT ( 'NONE',  ( 1.745740669421566678E-13, -6.123233995736766085E-15, 50.00000000000000000 ) ) ;
#219 = VERTEX_POINT ( 'NONE', #138 ) ;
#220 = APPROVAL_ROLE ( '' ) ;
#221 = ADVANCED_FACE ( 'NONE', ( #119, #176 ), #63, .T. ) ;
#222 = PERSON_AND_ORGANIZATION_ROLE ( 'creator' ) ;
#223 = ORIENTED_EDGE ( 'NONE', *, *, #30, .T. ) ;
#224 = PERSON_AND_ORGANIZATION ( #225, #145 ) ;
#225 = PERSON ( 'UNSPECIFIED', 'UNSPECIFIED', 'UNSPECIFIED', ('UNSPECIFIED'), ('UNSPECIFIED'), ('UNSPECIFIED') ) ;
#226 = CC_DESIGN_PERSON_AND_ORGANIZATION_ASSIGNMENT ( #167, #146, ( #150 ) ) ;
#227 = PRODUCT_DEFINITION_FORMATION_WITH_SPECIFIED_SOURCE ( 'ANY', '', #46, .NOT_KNOWN. ) ;
#228 = PERSON_AND_ORGANIZATION ( #225, #145 ) ;
#229 = ORIENTED_EDGE ( 'NONE', *, *, #166, .T. ) ;
#230 = APPROVAL ( #171, 'UNSPECIFIED' ) ;
#231 = DIRECTION ( 'NONE',  ( 3.491481338843133355E-15, -0.0000000000000000000, 1.000000000000000000 ) ) ;
#232 = FACE_OUTER_BOUND ( 'NONE', #148, .T. ) ;
#233 = DIRECTION ( 'NONE',  ( -4.275831445896958607E-31, -1.000000000000000000, -1.224646799147353207E-16 ) ) ;
#234 = DIRECTION ( 'NONE',  ( 4.275831445896958607E-31, 1.000000000000000000, 1.224646799147353207E-16 ) ) ;
#235 = DIRECTION ( 'NONE',  ( 3.491481338843133355E-15, -0.0000000000000000000, 1.000000000000000000 ) ) ;
#236 = CC_DESIGN_APPROVAL ( #22, ( #227 ) ) ;
#237 = DIRECTION ( 'NONE',  ( 4.275831445896958607E-31, 1.000000000000000000, 1.224646799147353207E-16 ) ) ;
#238 = CIRCLE ( 'NONE', #160, 3.000000000000000888 ) ;
#239 = ADVANCED_FACE ( 'NONE', ( #156, #53 ), #162, .T. ) ;
#240 = CARTESIAN_POINT ( 'NONE',  ( 2.000000000000000444, 0.0000000000000000000, 0.09999999999999302502 ) ) ;
#241 = EDGE_LOOP ( 'NONE', ( #85 ) ) ;
#242 = CC_DESIGN_PERSON_AND_ORGANIZATION_ASSIGNMENT ( #228, #94, ( #227 ) ) ;
#243 = COORDINATED_UNIVERSAL_TIME_OFFSET ( 1, 0, .AHEAD. ) ;
ENDSEC;
END-ISO-10303-21;
