ISO-10303-21;
HEADER;
FILE_DESCRIPTION (( 'STEP AP203' ),
    '1' );
FILE_NAME ('36386.step',
    '2021-12-06T12:59:25',
    ( '' ),
    ( '' ),
    'SwSTEP 2.0',
    'SolidWorks 2019',
    '' );
FILE_SCHEMA (( 'CONFIG_CONTROL_DESIGN' ));
ENDSEC;

DATA;
#1 = APPROVAL_PERSON_ORGANIZATION ( #29, #78, #112 ) ;
#2 = APPROVAL_STATUS ( 'not_yet_approved' ) ;
#3 = COORDINATED_UNIVERSAL_TIME_OFFSET ( 1, 0, .AHEAD. ) ;
#4 = PERSON_AND_ORGANIZATION_ROLE ( 'design_owner' ) ;
#5 = COORDINATED_UNIVERSAL_TIME_OFFSET ( 1, 0, .AHEAD. ) ;
#6 = AXIS2_PLACEMENT_3D ( 'NONE', #27, #50, #79 ) ;
#7 = DESIGN_CONTEXT ( 'detailed design', #86, 'design' ) ;
#8 = CC_DESIGN_PERSON_AND_ORGANIZATION_ASSIGNMENT ( #162, #109, ( #150 ) ) ;
#9 = ORIENTED_EDGE ( 'NONE', *, *, #136, .T. ) ;
#10 = EDGE_LOOP ( 'NONE', ( #135 ) ) ;
#11 = DIRECTION ( 'NONE',  ( 1.425277148632319360E-30, 1.000000000000000000, 4.082155997157844188E-16 ) ) ;
#12 = FACE_BOUND ( 'NONE', #35, .T. ) ;
#13 = CALENDAR_DATE ( 2021, 6, 12 ) ;
#14 = CARTESIAN_POINT ( 'NONE',  ( -1.140221718905855769E-29, 1.333119806810540388E-30, -3.265724797726275745E-15 ) ) ;
#15 = AXIS2_PLACEMENT_3D ( 'NONE', #85, #77, #47 ) ;
#16 = APPROVAL ( #2, 'UNSPECIFIED' ) ;
#17 = COORDINATED_UNIVERSAL_TIME_OFFSET ( 1, 0, .AHEAD. ) ;
#18 = CALENDAR_DATE ( 2021, 6, 12 ) ;
#19 = SHAPE_DEFINITION_REPRESENTATION ( #122, #90 ) ;
#20 = DATE_AND_TIME ( #96, #103 ) ;
#21 = LOCAL_TIME ( 13, 59, 25.00000000000000000, #153 ) ;
#22 = CARTESIAN_POINT ( 'NONE',  ( 0.0000000000000000000, 0.0000000000000000000, 0.0000000000000000000 ) ) ;
#23 = DIRECTION ( 'NONE',  ( 1.430690815830518037E-30, 1.000000000000000000, 4.095874873834127917E-16 ) ) ;
#24 = CC_DESIGN_APPROVAL ( #69, ( #116 ) ) ;
#25 = EDGE_LOOP ( 'NONE', ( #139 ) ) ;
#26 = DATE_TIME_ROLE ( 'classification_date' ) ;
#27 = CARTESIAN_POINT ( 'NONE',  ( 0.0000000000000000000, 0.0000000000000000000, 0.0000000000000000000 ) ) ;
#28 = APPROVAL_PERSON_ORGANIZATION ( #119, #16, #97 ) ;
#29 = PERSON_AND_ORGANIZATION ( #142, #57 ) ;
#30 = MECHANICAL_CONTEXT ( 'NONE', #84, 'mechanical' ) ;
#31 = CARTESIAN_POINT ( 'NONE',  ( 3.142333204958820020E-15, 8.000000000000000000, 0.9000000000000000222 ) ) ;
#32 = ADVANCED_FACE ( 'NONE', ( #75, #12 ), #167, .T. ) ;
#33 = VERTEX_POINT ( 'NONE', #31 ) ;
#34 = CARTESIAN_POINT ( 'NONE',  ( -1.368455531567204171E-45, 8.000000000000000000, 0.0000000000000000000 ) ) ;
#35 = EDGE_LOOP ( 'NONE', ( #98 ) ) ;
#36 = DIRECTION ( 'NONE',  ( -1.425277148632319536E-30, -1.000000000000000000, -4.082155997157844188E-16 ) ) ;
#37 = CYLINDRICAL_SURFACE ( 'NONE', #128, 8.000000000000000000 ) ;
#38 = CC_DESIGN_PERSON_AND_ORGANIZATION_ASSIGNMENT ( #71, #54, ( #116 ) ) ;
#39 = FACE_OUTER_BOUND ( 'NONE', #76, .T. ) ;
#40 = CC_DESIGN_APPROVAL ( #78, ( #141 ) ) ;
#41 = DIRECTION ( 'NONE',  ( 1.000000000000000000, 0.0000000000000000000, 0.0000000000000000000 ) ) ;
#42 =( LENGTH_UNIT ( ) NAMED_UNIT ( * ) SI_UNIT ( .MILLI., .METRE. ) );
#43 = PERSON_AND_ORGANIZATION ( #142, #57 ) ;
#44 = AXIS2_PLACEMENT_3D ( 'NONE', #64, #134, #23 ) ;
#45 = ORIENTED_EDGE ( 'NONE', *, *, #100, .F. ) ;
#46 = APPROVAL_PERSON_ORGANIZATION ( #43, #69, #56 ) ;
#47 = DIRECTION ( 'NONE',  ( 1.425277148632319536E-30, 1.000000000000000000, 4.082155997157844188E-16 ) ) ;
#48 = EDGE_LOOP ( 'NONE', ( #9 ) ) ;
#49 = AXIS2_PLACEMENT_3D ( 'NONE', #14, #160, #81 ) ;
#50 = DIRECTION ( 'NONE',  ( -3.491481338843133355E-15, 4.082155997157844188E-16, -1.000000000000000000 ) ) ;
#51 = CC_DESIGN_PERSON_AND_ORGANIZATION_ASSIGNMENT ( #106, #4, ( #129 ) ) ;
#52 = ADVANCED_FACE ( 'NONE', ( #63, #62 ), #110, .T. ) ;
#53 = APPROVAL_DATE_TIME ( #108, #16 ) ;
#54 = PERSON_AND_ORGANIZATION_ROLE ( 'creator' ) ;
#55 = CC_DESIGN_DATE_AND_TIME_ASSIGNMENT ( #105, #159, ( #116 ) ) ;
#56 = APPROVAL_ROLE ( '' ) ;
#57 = ORGANIZATION ( 'UNSPECIFIED', 'UNSPECIFIED', '' ) ;
#58 = CALENDAR_DATE ( 2021, 6, 12 ) ;
#59 = AXIS2_PLACEMENT_3D ( 'NONE', #99, #149, #36 ) ;
#60 = DATE_AND_TIME ( #169, #82 ) ;
#61 = APPROVAL_DATE_TIME ( #20, #69 ) ;
#62 = FACE_OUTER_BOUND ( 'NONE', #151, .T. ) ;
#63 = FACE_BOUND ( 'NONE', #48, .T. ) ;
#64 = CARTESIAN_POINT ( 'NONE',  ( 3.142333204958775055E-15, -3.673940397442007113E-16, 0.8999999999999870326 ) ) ;
#65 = ORIENTED_EDGE ( 'NONE', *, *, #68, .T. ) ;
#66 = DATE_AND_TIME ( #13, #21 ) ;
#67 = CARTESIAN_POINT ( 'NONE',  ( 3.142333204958808581E-15, -3.673940397442046063E-16, 0.8999999999999966915 ) ) ;
#68 = EDGE_CURVE ( 'NONE', #131, #131, #91, .T. ) ;
#69 = APPROVAL ( #130, 'UNSPECIFIED' ) ;
#70 =( NAMED_UNIT ( * ) SI_UNIT ( $, .STERADIAN. ) SOLID_ANGLE_UNIT ( ) );
#71 = PERSON_AND_ORGANIZATION ( #142, #57 ) ;
#72 = UNCERTAINTY_MEASURE_WITH_UNIT (LENGTH_MEASURE( 1.000000000000000082E-05 ), #42, 'distance_accuracy_value', 'NONE');
#73 = LOCAL_TIME ( 13, 59, 25.00000000000000000, #17 ) ;
#74 = SECURITY_CLASSIFICATION_LEVEL ( 'unclassified' ) ;
#75 = FACE_OUTER_BOUND ( 'NONE', #87, .T. ) ;
#76 = EDGE_LOOP ( 'NONE', ( #152 ) ) ;
#77 = DIRECTION ( 'NONE',  ( -3.491481338843133355E-15, 4.082155997157844188E-16, -1.000000000000000000 ) ) ;
#78 = APPROVAL ( #126, 'UNSPECIFIED' ) ;
#79 = DIRECTION ( 'NONE',  ( 1.425277148632319360E-30, 1.000000000000000000, 4.082155997157844188E-16 ) ) ;
#80 = APPLICATION_PROTOCOL_DEFINITION ( 'international standard', 'config_control_design', 1994, #84 ) ;
#81 = DIRECTION ( 'NONE',  ( 1.425277148632319536E-30, 1.000000000000000000, 4.082155997157844681E-16 ) ) ;
#82 = LOCAL_TIME ( 13, 59, 25.00000000000000000, #164 ) ;
#83 =( NAMED_UNIT ( * ) PLANE_ANGLE_UNIT ( ) SI_UNIT ( $, .RADIAN. ) );
#84 = APPLICATION_CONTEXT ( 'configuration controlled 3d designs of mechanical parts and assemblies' ) ;
#85 = CARTESIAN_POINT ( 'NONE',  ( -1.674700649642975445E-29, 8.000000000000000000, -4.796533296660467069E-15 ) ) ;
#86 = APPLICATION_CONTEXT ( 'configuration controlled 3d designs of mechanical parts and assemblies' ) ;
#87 = EDGE_LOOP ( 'NONE', ( #65 ) ) ;
#88 = CARTESIAN_POINT ( 'NONE',  ( 0.0000000000000000000, 0.0000000000000000000, 0.0000000000000000000 ) ) ;
#89 = FACE_OUTER_BOUND ( 'NONE', #124, .T. ) ;
#90 = ADVANCED_BREP_SHAPE_REPRESENTATION ( '36386', ( #138, #123 ), #143 ) ;
#91 = CIRCLE ( 'NONE', #156, 31.50000000000000000 ) ;
#92 = PERSON_AND_ORGANIZATION ( #142, #57 ) ;
#93 = APPROVAL_DATE_TIME ( #66, #78 ) ;
#94 = APPLICATION_PROTOCOL_DEFINITION ( 'international standard', 'config_control_design', 1994, #86 ) ;
#95 = CC_DESIGN_SECURITY_CLASSIFICATION ( #141, ( #150 ) ) ;
#96 = CALENDAR_DATE ( 2021, 6, 12 ) ;
#97 = APPROVAL_ROLE ( '' ) ;
#98 = ORIENTED_EDGE ( 'NONE', *, *, #168, .F. ) ;
#99 = CARTESIAN_POINT ( 'NONE',  ( 3.142333204958803059E-15, 8.000000000000000000, 0.8999999999999952482 ) ) ;
#100 = EDGE_CURVE ( 'NONE', #147, #147, #121, .T. ) ;
#101 = ORIENTED_EDGE ( 'NONE', *, *, #68, .F. ) ;
#102 = DIRECTION ( 'NONE',  ( 1.425277148632319536E-30, 1.000000000000000000, 4.082155997157844681E-16 ) ) ;
#103 = LOCAL_TIME ( 13, 59, 25.00000000000000000, #3 ) ;
#104 = VERTEX_POINT ( 'NONE', #34 ) ;
#105 = DATE_AND_TIME ( #18, #73 ) ;
#106 = PERSON_AND_ORGANIZATION ( #142, #57 ) ;
#107 = CIRCLE ( 'NONE', #166, 8.000000000000000000 ) ;
#108 = DATE_AND_TIME ( #58, #118 ) ;
#109 = PERSON_AND_ORGANIZATION_ROLE ( 'creator' ) ;
#110 = PLANE ( 'NONE',  #59 ) ;
#111 = DIRECTION ( 'NONE',  ( -3.491481338843133355E-15, 4.082155997157844188E-16, -1.000000000000000000 ) ) ;
#112 = APPROVAL_ROLE ( '' ) ;
#113 = CYLINDRICAL_SURFACE ( 'NONE', #6, 31.50000000000000000 ) ;
#114 = PRODUCT_RELATED_PRODUCT_CATEGORY ( 'detail', '', ( #129 ) ) ;
#115 = ADVANCED_FACE ( 'NONE', ( #165, #155 ), #37, .F. ) ;
#116 = PRODUCT_DEFINITION ( 'UNKNOWN', '', #150, #7 ) ;
#117 = DIRECTION ( 'NONE',  ( 0.0000000000000000000, 0.0000000000000000000, 1.000000000000000000 ) ) ;
#118 = LOCAL_TIME ( 13, 59, 25.00000000000000000, #5 ) ;
#119 = PERSON_AND_ORGANIZATION ( #142, #57 ) ;
#120 = CC_DESIGN_PERSON_AND_ORGANIZATION_ASSIGNMENT ( #148, #133, ( #150 ) ) ;
#121 = CIRCLE ( 'NONE', #44, 31.50000000000000000 ) ;
#122 = PRODUCT_DEFINITION_SHAPE ( 'NONE', 'NONE',  #116 ) ;
#123 = AXIS2_PLACEMENT_3D ( 'NONE', #22, #117, #41 ) ;
#124 = EDGE_LOOP ( 'NONE', ( #101 ) ) ;
#125 = CARTESIAN_POINT ( 'NONE',  ( -4.489623018191806800E-29, 5.249159239316502022E-30, -1.285879139104720949E-14 ) ) ;
#126 = APPROVAL_STATUS ( 'not_yet_approved' ) ;
#127 = DIRECTION ( 'NONE',  ( -3.491481338843133355E-15, 4.082155997157844188E-16, -1.000000000000000000 ) ) ;
#128 = AXIS2_PLACEMENT_3D ( 'NONE', #88, #127, #102 ) ;
#129 = PRODUCT ( '36386', '36386', '', ( #30 ) ) ;
#130 = APPROVAL_STATUS ( 'not_yet_approved' ) ;
#131 = VERTEX_POINT ( 'NONE', #132 ) ;
#132 = CARTESIAN_POINT ( 'NONE',  ( -5.473822126268816683E-45, 31.50000000000000000, 0.0000000000000000000 ) ) ;
#133 = PERSON_AND_ORGANIZATION_ROLE ( 'design_supplier' ) ;
#134 = DIRECTION ( 'NONE',  ( -3.491481338843133355E-15, 4.082155997157844188E-16, -1.000000000000000000 ) ) ;
#135 = ORIENTED_EDGE ( 'NONE', *, *, #168, .T. ) ;
#136 = EDGE_CURVE ( 'NONE', #33, #33, #107, .T. ) ;
#137 = CC_DESIGN_DATE_AND_TIME_ASSIGNMENT ( #60, #26, ( #141 ) ) ;
#138 = MANIFOLD_SOLID_BREP ( 'Corps-Déplacer/Copier1', #144 ) ;
#139 = ORIENTED_EDGE ( 'NONE', *, *, #136, .F. ) ;
#140 = DIRECTION ( 'NONE',  ( -3.491481338843133355E-15, 4.082155997157844188E-16, -1.000000000000000000 ) ) ;
#141 = SECURITY_CLASSIFICATION ( '', '', #74 ) ;
#142 = PERSON ( 'UNSPECIFIED', 'UNSPECIFIED', 'UNSPECIFIED', ('UNSPECIFIED'), ('UNSPECIFIED'), ('UNSPECIFIED') ) ;
#143 =( GEOMETRIC_REPRESENTATION_CONTEXT ( 3 ) GLOBAL_UNCERTAINTY_ASSIGNED_CONTEXT ( ( #72 ) ) GLOBAL_UNIT_ASSIGNED_CONTEXT ( ( #42, #83, #70 ) ) REPRESENTATION_CONTEXT ( 'NONE', 'WORKASPACE' ) );
#144 = CLOSED_SHELL ( 'NONE', ( #32, #163, #52, #115 ) ) ;
#145 = PERSON_AND_ORGANIZATION_ROLE ( 'classification_officer' ) ;
#146 = CARTESIAN_POINT ( 'NONE',  ( 3.142333204958820020E-15, 31.50000000000000000, 0.9000000000000000222 ) ) ;
#147 = VERTEX_POINT ( 'NONE', #146 ) ;
#148 = PERSON_AND_ORGANIZATION ( #142, #57 ) ;
#149 = DIRECTION ( 'NONE',  ( 3.491481338843133355E-15, -4.082155997157844188E-16, 1.000000000000000000 ) ) ;
#150 = PRODUCT_DEFINITION_FORMATION_WITH_SPECIFIED_SOURCE ( 'ANY', '', #129, .NOT_KNOWN. ) ;
#151 = EDGE_LOOP ( 'NONE', ( #45 ) ) ;
#152 = ORIENTED_EDGE ( 'NONE', *, *, #100, .T. ) ;
#153 = COORDINATED_UNIVERSAL_TIME_OFFSET ( 1, 0, .AHEAD. ) ;
#154 = CIRCLE ( 'NONE', #49, 8.000000000000000000 ) ;
#155 = FACE_OUTER_BOUND ( 'NONE', #25, .T. ) ;
#156 = AXIS2_PLACEMENT_3D ( 'NONE', #125, #111, #11 ) ;
#157 = DIRECTION ( 'NONE',  ( 1.444447458290426890E-30, 1.000000000000000000, 4.065758146820641628E-16 ) ) ;
#158 = CC_DESIGN_PERSON_AND_ORGANIZATION_ASSIGNMENT ( #92, #145, ( #141 ) ) ;
#159 = DATE_TIME_ROLE ( 'creation_date' ) ;
#160 = DIRECTION ( 'NONE',  ( -3.491481338843133355E-15, 4.082155997157844188E-16, -1.000000000000000000 ) ) ;
#161 = CC_DESIGN_APPROVAL ( #16, ( #150 ) ) ;
#162 = PERSON_AND_ORGANIZATION ( #142, #57 ) ;
#163 = ADVANCED_FACE ( 'NONE', ( #39, #89 ), #113, .T. ) ;
#164 = COORDINATED_UNIVERSAL_TIME_OFFSET ( 1, 0, .AHEAD. ) ;
#165 = FACE_OUTER_BOUND ( 'NONE', #10, .T. ) ;
#166 = AXIS2_PLACEMENT_3D ( 'NONE', #67, #140, #157 ) ;
#167 = PLANE ( 'NONE',  #15 ) ;
#168 = EDGE_CURVE ( 'NONE', #104, #104, #154, .T. ) ;
#169 = CALENDAR_DATE ( 2021, 6, 12 ) ;
ENDSEC;
END-ISO-10303-21;
