ISO-10303-21;
HEADER;
FILE_DESCRIPTION (( 'STEP AP203' ),
    '1' );
FILE_NAME ('36384.step',
    '2021-12-06T12:59:23',
    ( '' ),
    ( '' ),
    'SwSTEP 2.0',
    'SolidWorks 2019',
    '' );
FILE_SCHEMA (( 'CONFIG_CONTROL_DESIGN' ));
ENDSEC;

DATA;
#1 = LOCAL_TIME ( 13, 59, 23.00000000000000000, #112 ) ;
#2 = DIRECTION ( 'NONE',  ( -3.491481338843133355E-15, 3.061616997868382648E-16, -1.000000000000000000 ) ) ;
#3 = FACE_BOUND ( 'NONE', #50, .T. ) ;
#4 = DIRECTION ( 'NONE',  ( 1.068957861474239564E-30, 1.000000000000000000, 3.061616997868382648E-16 ) ) ;
#5 = EDGE_CURVE ( 'NONE', #158, #158, #128, .T. ) ;
#6 = CIRCLE ( 'NONE', #53, 4.000000000000000000 ) ;
#7 = FACE_OUTER_BOUND ( 'NONE', #82, .T. ) ;
#8 = PERSON_AND_ORGANIZATION_ROLE ( 'classification_officer' ) ;
#9 = PERSON_AND_ORGANIZATION ( #103, #28 ) ;
#10 = APPROVAL_STATUS ( 'not_yet_approved' ) ;
#11 = DATE_AND_TIME ( #165, #15 ) ;
#12 = EDGE_CURVE ( 'NONE', #147, #147, #142, .T. ) ;
#13 = DIRECTION ( 'NONE',  ( -3.491481338843133355E-15, 3.061616997868382648E-16, -1.000000000000000000 ) ) ;
#14 = CARTESIAN_POINT ( 'NONE',  ( 4.189777606611759237E-15, 15.00000000000000000, 1.199999999999999956 ) ) ;
#15 = LOCAL_TIME ( 13, 59, 23.00000000000000000, #30 ) ;
#16 = CARTESIAN_POINT ( 'NONE',  ( 4.189777606611760026E-15, 4.000000000000000000, 1.200000000000000178 ) ) ;
#17 = PLANE ( 'NONE',  #131 ) ;
#18 = DATE_AND_TIME ( #74, #35 ) ;
#19 = DATE_TIME_ROLE ( 'creation_date' ) ;
#20 = CC_DESIGN_APPROVAL ( #148, ( #102 ) ) ;
#21 = PERSON_AND_ORGANIZATION ( #103, #28 ) ;
#22 = PRODUCT ( '36384', '36384', '', ( #133 ) ) ;
#23 = CC_DESIGN_DATE_AND_TIME_ASSIGNMENT ( #100, #19, ( #144 ) ) ;
#24 = FACE_OUTER_BOUND ( 'NONE', #61, .T. ) ;
#25 =( NAMED_UNIT ( * ) SI_UNIT ( $, .STERADIAN. ) SOLID_ANGLE_UNIT ( ) );
#26 = EDGE_LOOP ( 'NONE', ( #47 ) ) ;
#27 = CARTESIAN_POINT ( 'NONE',  ( -5.879268238108316727E-30, 4.000000000000000000, -1.683889348827610456E-15 ) ) ;
#28 = ORGANIZATION ( 'UNSPECIFIED', 'UNSPECIFIED', '' ) ;
#29 = DIRECTION ( 'NONE',  ( 1.068957861474239564E-30, 1.000000000000000000, 3.061616997868382648E-16 ) ) ;
#30 = COORDINATED_UNIVERSAL_TIME_OFFSET ( 1, 0, .AHEAD. ) ;
#31 = ORIENTED_EDGE ( 'NONE', *, *, #12, .F. ) ;
#32 = SHAPE_DEFINITION_REPRESENTATION ( #98, #66 ) ;
#33 = ADVANCED_FACE ( 'NONE', ( #7, #24 ), #132, .T. ) ;
#34 = PERSON_AND_ORGANIZATION ( #103, #28 ) ;
#35 = LOCAL_TIME ( 13, 59, 23.00000000000000000, #83 ) ;
#36 = APPLICATION_CONTEXT ( 'configuration controlled 3d designs of mechanical parts and assemblies' ) ;
#37 = AXIS2_PLACEMENT_3D ( 'NONE', #108, #161, #105 ) ;
#38 = DIRECTION ( 'NONE',  ( 3.491481338843133355E-15, -3.061616997868382648E-16, 1.000000000000000000 ) ) ;
#39 = VERTEX_POINT ( 'NONE', #14 ) ;
#40 = CARTESIAN_POINT ( 'NONE',  ( 0.0000000000000000000, 0.0000000000000000000, 0.0000000000000000000 ) ) ;
#41 = CC_DESIGN_PERSON_AND_ORGANIZATION_ASSIGNMENT ( #9, #8, ( #151 ) ) ;
#42 = FACE_OUTER_BOUND ( 'NONE', #26, .T. ) ;
#43 = PRODUCT_RELATED_PRODUCT_CATEGORY ( 'detail', '', ( #22 ) ) ;
#44 = ORIENTED_EDGE ( 'NONE', *, *, #140, .T. ) ;
#45 = APPROVAL_STATUS ( 'not_yet_approved' ) ;
#46 = CALENDAR_DATE ( 2021, 6, 12 ) ;
#47 = ORIENTED_EDGE ( 'NONE', *, *, #117, .F. ) ;
#48 = CALENDAR_DATE ( 2021, 6, 12 ) ;
#49 = DATE_TIME_ROLE ( 'classification_date' ) ;
#50 = EDGE_LOOP ( 'NONE', ( #44 ) ) ;
#51 = CLOSED_SHELL ( 'NONE', ( #89, #33, #93, #139 ) ) ;
#52 = CC_DESIGN_PERSON_AND_ORGANIZATION_ASSIGNMENT ( #34, #71, ( #144 ) ) ;
#53 = AXIS2_PLACEMENT_3D ( 'NONE', #109, #59, #104 ) ;
#54 = DIRECTION ( 'NONE',  ( 1.068957861474239564E-30, 1.000000000000000000, 3.061616997868382648E-16 ) ) ;
#55 = DIRECTION ( 'NONE',  ( -3.491481338843133355E-15, 3.061616997868382648E-16, -1.000000000000000000 ) ) ;
#56 = DIRECTION ( 'NONE',  ( 1.068957861474239564E-30, 1.000000000000000000, 3.061616997868382155E-16 ) ) ;
#57 = AXIS2_PLACEMENT_3D ( 'NONE', #69, #55, #56 ) ;
#58 = UNCERTAINTY_MEASURE_WITH_UNIT (LENGTH_MEASURE( 1.000000000000000082E-05 ), #160, 'distance_accuracy_value', 'NONE');
#59 = DIRECTION ( 'NONE',  ( -3.491481338843133355E-15, 3.061616997868382648E-16, -1.000000000000000000 ) ) ;
#60 = CC_DESIGN_DATE_AND_TIME_ASSIGNMENT ( #124, #49, ( #151 ) ) ;
#61 = EDGE_LOOP ( 'NONE', ( #94 ) ) ;
#62 = SECURITY_CLASSIFICATION_LEVEL ( 'unclassified' ) ;
#63 = PERSON_AND_ORGANIZATION_ROLE ( 'creator' ) ;
#64 = APPROVAL_DATE_TIME ( #11, #138 ) ;
#65 = DIRECTION ( 'NONE',  ( -1.068957861474239564E-30, -1.000000000000000000, -3.061616997868382648E-16 ) ) ;
#66 = ADVANCED_BREP_SHAPE_REPRESENTATION ( '36384', ( #129, #166 ), #113 ) ;
#67 = APPLICATION_PROTOCOL_DEFINITION ( 'international standard', 'config_control_design', 1994, #36 ) ;
#68 =( NAMED_UNIT ( * ) PLANE_ANGLE_UNIT ( ) SI_UNIT ( $, .RADIAN. ) );
#69 = CARTESIAN_POINT ( 'NONE',  ( 0.0000000000000000000, 0.0000000000000000000, 0.0000000000000000000 ) ) ;
#70 = ORIENTED_EDGE ( 'NONE', *, *, #12, .T. ) ;
#71 = PERSON_AND_ORGANIZATION_ROLE ( 'creator' ) ;
#72 = CC_DESIGN_PERSON_AND_ORGANIZATION_ASSIGNMENT ( #21, #76, ( #102 ) ) ;
#73 = ORIENTED_EDGE ( 'NONE', *, *, #140, .F. ) ;
#74 = CALENDAR_DATE ( 2021, 6, 12 ) ;
#75 = LOCAL_TIME ( 13, 59, 23.00000000000000000, #127 ) ;
#76 = PERSON_AND_ORGANIZATION_ROLE ( 'design_supplier' ) ;
#77 = APPROVAL_PERSON_ORGANIZATION ( #154, #138, #152 ) ;
#78 = CYLINDRICAL_SURFACE ( 'NONE', #107, 4.000000000000000000 ) ;
#79 = APPROVAL_PERSON_ORGANIZATION ( #115, #123, #149 ) ;
#80 = DIRECTION ( 'NONE',  ( -3.491481338843133355E-15, 3.061616997868382648E-16, -1.000000000000000000 ) ) ;
#81 = FACE_BOUND ( 'NONE', #164, .T. ) ;
#82 = EDGE_LOOP ( 'NONE', ( #110 ) ) ;
#83 = COORDINATED_UNIVERSAL_TIME_OFFSET ( 1, 0, .AHEAD. ) ;
#84 = AXIS2_PLACEMENT_3D ( 'NONE', #27, #13, #4 ) ;
#85 = APPROVAL_DATE_TIME ( #168, #148 ) ;
#86 = CC_DESIGN_PERSON_AND_ORGANIZATION_ASSIGNMENT ( #122, #63, ( #102 ) ) ;
#87 = APPROVAL_PERSON_ORGANIZATION ( #96, #148, #169 ) ;
#88 = FACE_OUTER_BOUND ( 'NONE', #116, .T. ) ;
#89 = ADVANCED_FACE ( 'NONE', ( #159, #81 ), #137, .T. ) ;
#90 = VERTEX_POINT ( 'NONE', #16 ) ;
#91 = DIRECTION ( 'NONE',  ( 0.0000000000000000000, 0.0000000000000000000, 1.000000000000000000 ) ) ;
#92 = CARTESIAN_POINT ( 'NONE',  ( 2.736911063134408342E-45, 15.00000000000000000, 0.0000000000000000000 ) ) ;
#93 = ADVANCED_FACE ( 'NONE', ( #3, #42 ), #17, .T. ) ;
#94 = ORIENTED_EDGE ( 'NONE', *, *, #5, .F. ) ;
#95 = PERSON_AND_ORGANIZATION ( #103, #28 ) ;
#96 = PERSON_AND_ORGANIZATION ( #103, #28 ) ;
#97 = EDGE_LOOP ( 'NONE', ( #73 ) ) ;
#98 = PRODUCT_DEFINITION_SHAPE ( 'NONE', 'NONE',  #144 ) ;
#99 = APPLICATION_PROTOCOL_DEFINITION ( 'international standard', 'config_control_design', 1994, #130 ) ;
#100 = DATE_AND_TIME ( #46, #75 ) ;
#101 = CC_DESIGN_PERSON_AND_ORGANIZATION_ASSIGNMENT ( #95, #163, ( #22 ) ) ;
#102 = PRODUCT_DEFINITION_FORMATION_WITH_SPECIFIED_SOURCE ( 'ANY', '', #22, .NOT_KNOWN. ) ;
#103 = PERSON ( 'UNSPECIFIED', 'UNSPECIFIED', 'UNSPECIFIED', ('UNSPECIFIED'), ('UNSPECIFIED'), ('UNSPECIFIED') ) ;
#104 = DIRECTION ( 'NONE',  ( 1.155557966632341512E-30, 1.000000000000000000, 3.252606517456513302E-16 ) ) ;
#105 = DIRECTION ( 'NONE',  ( 1.078520768856852078E-30, 1.000000000000000000, 3.035766082959412415E-16 ) ) ;
#106 = AXIS2_PLACEMENT_3D ( 'NONE', #145, #80, #29 ) ;
#107 = AXIS2_PLACEMENT_3D ( 'NONE', #136, #2, #54 ) ;
#108 = CARTESIAN_POINT ( 'NONE',  ( 4.189777606611743460E-15, -3.673940397442044584E-16, 1.199999999999995293 ) ) ;
#109 = CARTESIAN_POINT ( 'NONE',  ( 4.189777606611756082E-15, -3.673940397442055431E-16, 1.199999999999998845 ) ) ;
#110 = ORIENTED_EDGE ( 'NONE', *, *, #117, .T. ) ;
#111 = COORDINATED_UNIVERSAL_TIME_OFFSET ( 1, 0, .AHEAD. ) ;
#112 = COORDINATED_UNIVERSAL_TIME_OFFSET ( 1, 0, .AHEAD. ) ;
#113 =( GEOMETRIC_REPRESENTATION_CONTEXT ( 3 ) GLOBAL_UNCERTAINTY_ASSIGNED_CONTEXT ( ( #58 ) ) GLOBAL_UNIT_ASSIGNED_CONTEXT ( ( #160, #68, #25 ) ) REPRESENTATION_CONTEXT ( 'NONE', 'WORKASPACE' ) );
#114 = APPROVAL_DATE_TIME ( #18, #123 ) ;
#115 = PERSON_AND_ORGANIZATION ( #103, #28 ) ;
#116 = EDGE_LOOP ( 'NONE', ( #70 ) ) ;
#117 = EDGE_CURVE ( 'NONE', #39, #39, #156, .T. ) ;
#118 = LOCAL_TIME ( 13, 59, 23.00000000000000000, #111 ) ;
#119 = CARTESIAN_POINT ( 'NONE',  ( 4.189777606611754504E-15, 4.000000000000000000, 1.199999999999998401 ) ) ;
#120 = DIRECTION ( 'NONE',  ( 1.068957861474239564E-30, 1.000000000000000000, 3.061616997868382155E-16 ) ) ;
#121 = CARTESIAN_POINT ( 'NONE',  ( 6.842277657836020854E-46, 4.000000000000000000, 0.0000000000000000000 ) ) ;
#122 = PERSON_AND_ORGANIZATION ( #103, #28 ) ;
#123 = APPROVAL ( #45, 'UNSPECIFIED' ) ;
#124 = DATE_AND_TIME ( #48, #118 ) ;
#125 = CC_DESIGN_SECURITY_CLASSIFICATION ( #151, ( #102 ) ) ;
#126 = DIRECTION ( 'NONE',  ( -3.491481338843133355E-15, 3.061616997868382648E-16, -1.000000000000000000 ) ) ;
#127 = COORDINATED_UNIVERSAL_TIME_OFFSET ( 1, 0, .AHEAD. ) ;
#128 = CIRCLE ( 'NONE', #150, 15.00000000000000000 ) ;
#129 = MANIFOLD_SOLID_BREP ( 'Corps-Déplacer/Copier1', #51 ) ;
#130 = APPLICATION_CONTEXT ( 'configuration controlled 3d designs of mechanical parts and assemblies' ) ;
#131 = AXIS2_PLACEMENT_3D ( 'NONE', #119, #38, #65 ) ;
#132 = CYLINDRICAL_SURFACE ( 'NONE', #57, 15.00000000000000000 ) ;
#133 = MECHANICAL_CONTEXT ( 'NONE', #36, 'mechanical' ) ;
#134 = CC_DESIGN_APPROVAL ( #138, ( #151 ) ) ;
#135 = FACE_OUTER_BOUND ( 'NONE', #97, .T. ) ;
#136 = CARTESIAN_POINT ( 'NONE',  ( 0.0000000000000000000, 0.0000000000000000000, 0.0000000000000000000 ) ) ;
#137 = PLANE ( 'NONE',  #84 ) ;
#138 = APPROVAL ( #10, 'UNSPECIFIED' ) ;
#139 = ADVANCED_FACE ( 'NONE', ( #88, #135 ), #78, .F. ) ;
#140 = EDGE_CURVE ( 'NONE', #90, #90, #6, .T. ) ;
#141 = CALENDAR_DATE ( 2021, 6, 12 ) ;
#142 = CIRCLE ( 'NONE', #106, 4.000000000000000000 ) ;
#143 = CC_DESIGN_APPROVAL ( #123, ( #144 ) ) ;
#144 = PRODUCT_DEFINITION ( 'UNKNOWN', '', #102, #162 ) ;
#145 = CARTESIAN_POINT ( 'NONE',  ( -4.275831445896957556E-30, 3.749399456654643363E-31, -1.224646799147353059E-15 ) ) ;
#146 = DIRECTION ( 'NONE',  ( 1.000000000000000000, 0.0000000000000000000, 0.0000000000000000000 ) ) ;
#147 = VERTEX_POINT ( 'NONE', #121 ) ;
#148 = APPROVAL ( #155, 'UNSPECIFIED' ) ;
#149 = APPROVAL_ROLE ( '' ) ;
#150 = AXIS2_PLACEMENT_3D ( 'NONE', #157, #126, #120 ) ;
#151 = SECURITY_CLASSIFICATION ( '', '', #62 ) ;
#152 = APPROVAL_ROLE ( '' ) ;
#153 = ORIENTED_EDGE ( 'NONE', *, *, #5, .T. ) ;
#154 = PERSON_AND_ORGANIZATION ( #103, #28 ) ;
#155 = APPROVAL_STATUS ( 'not_yet_approved' ) ;
#156 = CIRCLE ( 'NONE', #37, 15.00000000000000000 ) ;
#157 = CARTESIAN_POINT ( 'NONE',  ( -1.603436792211359171E-29, 1.406024796245491250E-30, -4.592425496802573578E-15 ) ) ;
#158 = VERTEX_POINT ( 'NONE', #92 ) ;
#159 = FACE_OUTER_BOUND ( 'NONE', #167, .T. ) ;
#160 =( LENGTH_UNIT ( ) NAMED_UNIT ( * ) SI_UNIT ( .MILLI., .METRE. ) );
#161 = DIRECTION ( 'NONE',  ( -3.491481338843133355E-15, 3.061616997868382648E-16, -1.000000000000000000 ) ) ;
#162 = DESIGN_CONTEXT ( 'detailed design', #130, 'design' ) ;
#163 = PERSON_AND_ORGANIZATION_ROLE ( 'design_owner' ) ;
#164 = EDGE_LOOP ( 'NONE', ( #31 ) ) ;
#165 = CALENDAR_DATE ( 2021, 6, 12 ) ;
#166 = AXIS2_PLACEMENT_3D ( 'NONE', #40, #91, #146 ) ;
#167 = EDGE_LOOP ( 'NONE', ( #153 ) ) ;
#168 = DATE_AND_TIME ( #141, #1 ) ;
#169 = APPROVAL_ROLE ( '' ) ;
ENDSEC;
END-ISO-10303-21;
