ISO-10303-21;
HEADER;
FILE_DESCRIPTION (( 'STEP AP203' ),
    '1' );
FILE_NAME ('36382.step',
    '2021-12-06T12:59:23',
    ( '' ),
    ( '' ),
    'SwSTEP 2.0',
    'SolidWorks 2019',
    '' );
FILE_SCHEMA (( 'CONFIG_CONTROL_DESIGN' ));
ENDSEC;

DATA;
#1 = SHAPE_DEFINITION_REPRESENTATION ( #78, #149 ) ;
#2 = DIRECTION ( 'NONE',  ( -3.491481338843133355E-15, 1.836970198721030378E-15, -1.000000000000000000 ) ) ;
#3 = DIRECTION ( 'NONE',  ( -6.413747168845439486E-30, -1.000000000000000000, -1.836970198721030378E-15 ) ) ;
#4 = DESIGN_CONTEXT ( 'detailed design', #70, 'design' ) ;
#5 = FACE_OUTER_BOUND ( 'NONE', #32, .T. ) ;
#6 = APPROVAL_STATUS ( 'not_yet_approved' ) ;
#7 = DATE_TIME_ROLE ( 'creation_date' ) ;
#8 = CIRCLE ( 'NONE', #59, 2.500000000000000888 ) ;
#9 = DIRECTION ( 'NONE',  ( 6.419766481290786644E-30, 1.000000000000000000, 1.835915678742120710E-15 ) ) ;
#10 = PERSON_AND_ORGANIZATION ( #49, #101 ) ;
#11 = DATE_AND_TIME ( #115, #24 ) ;
#12 = EDGE_LOOP ( 'NONE', ( #69 ) ) ;
#13 = FACE_OUTER_BOUND ( 'NONE', #104, .T. ) ;
#14 = APPROVAL_DATE_TIME ( #158, #79 ) ;
#15 = CARTESIAN_POINT ( 'NONE',  ( 6.982962677686105980E-16, 2.500000000000000444, 0.1999999999999954037 ) ) ;
#16 = COORDINATED_UNIVERSAL_TIME_OFFSET ( 1, 0, .AHEAD. ) ;
#17 = EDGE_LOOP ( 'NONE', ( #48 ) ) ;
#18 = CARTESIAN_POINT ( 'NONE',  ( -5.473822126268816683E-45, 7.500000000000000000, 0.0000000000000000000 ) ) ;
#19 = APPLICATION_CONTEXT ( 'configuration controlled 3d designs of mechanical parts and assemblies' ) ;
#20 = ADVANCED_FACE ( 'NONE', ( #13, #162 ), #107, .T. ) ;
#21 = DIRECTION ( 'NONE',  ( -3.491481338843133355E-15, 1.836970198721030378E-15, -1.000000000000000000 ) ) ;
#22 = CYLINDRICAL_SURFACE ( 'NONE', #82, 2.500000000000000444 ) ;
#23 = APPROVAL_STATUS ( 'not_yet_approved' ) ;
#24 = LOCAL_TIME ( 13, 59, 23.00000000000000000, #126 ) ;
#25 = APPLICATION_PROTOCOL_DEFINITION ( 'international standard', 'config_control_design', 1994, #19 ) ;
#26 = PERSON_AND_ORGANIZATION_ROLE ( 'classification_officer' ) ;
#27 = CC_DESIGN_PERSON_AND_ORGANIZATION_ASSIGNMENT ( #64, #55, ( #169 ) ) ;
#28 =( GEOMETRIC_REPRESENTATION_CONTEXT ( 3 ) GLOBAL_UNCERTAINTY_ASSIGNED_CONTEXT ( ( #33 ) ) GLOBAL_UNIT_ASSIGNED_CONTEXT ( ( #75, #50, #86 ) ) REPRESENTATION_CONTEXT ( 'NONE', 'WORKASPACE' ) );
#29 = EDGE_CURVE ( 'NONE', #122, #122, #8, .T. ) ;
#30 = APPROVAL_ROLE ( '' ) ;
#31 = CC_DESIGN_APPROVAL ( #147, ( #142 ) ) ;
#32 = EDGE_LOOP ( 'NONE', ( #80 ) ) ;
#33 = UNCERTAINTY_MEASURE_WITH_UNIT (LENGTH_MEASURE( 1.000000000000000082E-05 ), #75, 'distance_accuracy_value', 'NONE');
#34 = DIRECTION ( 'NONE',  ( 6.413747168845439486E-30, 1.000000000000000000, 1.836970198721029983E-15 ) ) ;
#35 = COORDINATED_UNIVERSAL_TIME_OFFSET ( 1, 0, .AHEAD. ) ;
#36 = ADVANCED_FACE ( 'NONE', ( #121, #46 ), #92, .T. ) ;
#37 = CARTESIAN_POINT ( 'NONE',  ( 0.0000000000000000000, 0.0000000000000000000, 0.0000000000000000000 ) ) ;
#38 = PERSON_AND_ORGANIZATION ( #49, #101 ) ;
#39 = DIRECTION ( 'NONE',  ( 6.413747168845439486E-30, 1.000000000000000000, 1.836970198721030378E-15 ) ) ;
#40 = CARTESIAN_POINT ( 'NONE',  ( 6.982962677685785505E-16, -3.673940397441807433E-16, 0.1999999999999862166 ) ) ;
#41 = PERSON_AND_ORGANIZATION_ROLE ( 'creator' ) ;
#42 = CIRCLE ( 'NONE', #137, 2.500000000000000000 ) ;
#43 = ADVANCED_FACE ( 'NONE', ( #60, #5 ), #108, .T. ) ;
#44 = CC_DESIGN_APPROVAL ( #79, ( #66 ) ) ;
#45 = DIRECTION ( 'NONE',  ( -3.491481338843133355E-15, 1.836970198721030378E-15, -1.000000000000000000 ) ) ;
#46 = FACE_OUTER_BOUND ( 'NONE', #128, .T. ) ;
#47 = DIRECTION ( 'NONE',  ( 6.432606014253364947E-30, 1.000000000000000000, 1.832301671500501705E-15 ) ) ;
#48 = ORIENTED_EDGE ( 'NONE', *, *, #110, .T. ) ;
#49 = PERSON ( 'UNSPECIFIED', 'UNSPECIFIED', 'UNSPECIFIED', ('UNSPECIFIED'), ('UNSPECIFIED'), ('UNSPECIFIED') ) ;
#50 =( NAMED_UNIT ( * ) PLANE_ANGLE_UNIT ( ) SI_UNIT ( $, .RADIAN. ) );
#51 = CIRCLE ( 'NONE', #57, 7.500000000000000000 ) ;
#52 = DIRECTION ( 'NONE',  ( 6.413747168845439486E-30, 1.000000000000000000, 1.836970198721030378E-15 ) ) ;
#53 = CC_DESIGN_DATE_AND_TIME_ASSIGNMENT ( #130, #120, ( #66 ) ) ;
#54 = APPROVAL_DATE_TIME ( #109, #147 ) ;
#55 = PERSON_AND_ORGANIZATION_ROLE ( 'design_supplier' ) ;
#56 = CIRCLE ( 'NONE', #91, 7.500000000000000000 ) ;
#57 = AXIS2_PLACEMENT_3D ( 'NONE', #40, #21, #9 ) ;
#58 = ORIENTED_EDGE ( 'NONE', *, *, #29, .F. ) ;
#59 = AXIS2_PLACEMENT_3D ( 'NONE', #117, #2, #47 ) ;
#60 = FACE_OUTER_BOUND ( 'NONE', #94, .T. ) ;
#61 = EDGE_LOOP ( 'NONE', ( #58 ) ) ;
#62 = AXIS2_PLACEMENT_3D ( 'NONE', #144, #127, #34 ) ;
#63 = PERSON_AND_ORGANIZATION_ROLE ( 'design_owner' ) ;
#64 = PERSON_AND_ORGANIZATION ( #49, #101 ) ;
#65 = CC_DESIGN_PERSON_AND_ORGANIZATION_ASSIGNMENT ( #98, #150, ( #142 ) ) ;
#66 = SECURITY_CLASSIFICATION ( '', '', #87 ) ;
#67 = CC_DESIGN_DATE_AND_TIME_ASSIGNMENT ( #136, #7, ( #142 ) ) ;
#68 = DIRECTION ( 'NONE',  ( 3.491481338843133355E-15, -1.836970198721030378E-15, 1.000000000000000000 ) ) ;
#69 = ORIENTED_EDGE ( 'NONE', *, *, #110, .F. ) ;
#70 = APPLICATION_CONTEXT ( 'configuration controlled 3d designs of mechanical parts and assemblies' ) ;
#71 = APPROVAL_ROLE ( '' ) ;
#72 = CARTESIAN_POINT ( 'NONE',  ( 0.0000000000000000000, 2.500000000000000000, 0.0000000000000000000 ) ) ;
#73 = LOCAL_TIME ( 13, 59, 23.00000000000000000, #81 ) ;
#74 = DIRECTION ( 'NONE',  ( -3.491481338843133355E-15, 1.836970198721030378E-15, -1.000000000000000000 ) ) ;
#75 =( LENGTH_UNIT ( ) NAMED_UNIT ( * ) SI_UNIT ( .MILLI., .METRE. ) );
#76 = PERSON_AND_ORGANIZATION ( #49, #101 ) ;
#77 = MANIFOLD_SOLID_BREP ( 'Corps-Déplacer/Copier1', #154 ) ;
#78 = PRODUCT_DEFINITION_SHAPE ( 'NONE', 'NONE',  #142 ) ;
#79 = APPROVAL ( #131, 'UNSPECIFIED' ) ;
#80 = ORIENTED_EDGE ( 'NONE', *, *, #135, .F. ) ;
#81 = COORDINATED_UNIVERSAL_TIME_OFFSET ( 1, 0, .AHEAD. ) ;
#82 = AXIS2_PLACEMENT_3D ( 'NONE', #113, #146, #52 ) ;
#83 = CARTESIAN_POINT ( 'NONE',  ( -1.603436792211359731E-29, 8.436148777472954157E-30, -4.592425496802575944E-15 ) ) ;
#84 = FACE_OUTER_BOUND ( 'NONE', #17, .T. ) ;
#85 = CARTESIAN_POINT ( 'NONE',  ( -4.810310376634079755E-29, 2.530844633241886667E-29, -1.377727649040772626E-14 ) ) ;
#86 =( NAMED_UNIT ( * ) SI_UNIT ( $, .STERADIAN. ) SOLID_ANGLE_UNIT ( ) );
#87 = SECURITY_CLASSIFICATION_LEVEL ( 'unclassified' ) ;
#88 = APPROVAL ( #23, 'UNSPECIFIED' ) ;
#89 = DIRECTION ( 'NONE',  ( 6.413747168845439486E-30, 1.000000000000000000, 1.836970198721030378E-15 ) ) ;
#90 = PERSON_AND_ORGANIZATION ( #49, #101 ) ;
#91 = AXIS2_PLACEMENT_3D ( 'NONE', #85, #74, #164 ) ;
#92 = PLANE ( 'NONE',  #97 ) ;
#93 = APPROVAL_PERSON_ORGANIZATION ( #38, #88, #100 ) ;
#94 = EDGE_LOOP ( 'NONE', ( #129 ) ) ;
#95 = CARTESIAN_POINT ( 'NONE',  ( 6.982962677686266711E-16, 7.500000000000000000, 0.1999999999999999833 ) ) ;
#96 = COORDINATED_UNIVERSAL_TIME_OFFSET ( 1, 0, .AHEAD. ) ;
#97 = AXIS2_PLACEMENT_3D ( 'NONE', #15, #68, #3 ) ;
#98 = PERSON_AND_ORGANIZATION ( #49, #101 ) ;
#99 = FACE_OUTER_BOUND ( 'NONE', #61, .T. ) ;
#100 = APPROVAL_ROLE ( '' ) ;
#101 = ORGANIZATION ( 'UNSPECIFIED', 'UNSPECIFIED', '' ) ;
#102 = PRODUCT ( '36382', '36382', '', ( #134 ) ) ;
#103 = AXIS2_PLACEMENT_3D ( 'NONE', #159, #45, #89 ) ;
#104 = EDGE_LOOP ( 'NONE', ( #161 ) ) ;
#105 = CALENDAR_DATE ( 2021, 6, 12 ) ;
#106 = CC_DESIGN_PERSON_AND_ORGANIZATION_ASSIGNMENT ( #10, #63, ( #102 ) ) ;
#107 = PLANE ( 'NONE',  #103 ) ;
#108 = CYLINDRICAL_SURFACE ( 'NONE', #62, 7.500000000000000000 ) ;
#109 = DATE_AND_TIME ( #165, #143 ) ;
#110 = EDGE_CURVE ( 'NONE', #166, #166, #42, .T. ) ;
#111 = APPLICATION_PROTOCOL_DEFINITION ( 'international standard', 'config_control_design', 1994, #70 ) ;
#112 = DIRECTION ( 'NONE',  ( 1.000000000000000000, 0.0000000000000000000, 0.0000000000000000000 ) ) ;
#113 = CARTESIAN_POINT ( 'NONE',  ( 0.0000000000000000000, 0.0000000000000000000, 0.0000000000000000000 ) ) ;
#114 = APPROVAL_PERSON_ORGANIZATION ( #90, #79, #30 ) ;
#115 = CALENDAR_DATE ( 2021, 6, 12 ) ;
#116 = CC_DESIGN_APPROVAL ( #88, ( #169 ) ) ;
#117 = CARTESIAN_POINT ( 'NONE',  ( 6.982962677686105980E-16, -3.673940397441976545E-16, 0.1999999999999954037 ) ) ;
#118 = CC_DESIGN_PERSON_AND_ORGANIZATION_ASSIGNMENT ( #138, #26, ( #66 ) ) ;
#119 = ORIENTED_EDGE ( 'NONE', *, *, #155, .F. ) ;
#120 = DATE_TIME_ROLE ( 'classification_date' ) ;
#121 = FACE_BOUND ( 'NONE', #156, .T. ) ;
#122 = VERTEX_POINT ( 'NONE', #151 ) ;
#123 = CALENDAR_DATE ( 2021, 6, 12 ) ;
#124 = VERTEX_POINT ( 'NONE', #95 ) ;
#125 = LOCAL_TIME ( 13, 59, 23.00000000000000000, #96 ) ;
#126 = COORDINATED_UNIVERSAL_TIME_OFFSET ( 1, 0, .AHEAD. ) ;
#127 = DIRECTION ( 'NONE',  ( -3.491481338843133355E-15, 1.836970198721030378E-15, -1.000000000000000000 ) ) ;
#128 = EDGE_LOOP ( 'NONE', ( #119 ) ) ;
#129 = ORIENTED_EDGE ( 'NONE', *, *, #155, .T. ) ;
#130 = DATE_AND_TIME ( #141, #73 ) ;
#131 = APPROVAL_STATUS ( 'not_yet_approved' ) ;
#132 = PERSON_AND_ORGANIZATION ( #49, #101 ) ;
#133 = APPROVAL_PERSON_ORGANIZATION ( #132, #147, #71 ) ;
#134 = MECHANICAL_CONTEXT ( 'NONE', #19, 'mechanical' ) ;
#135 = EDGE_CURVE ( 'NONE', #148, #148, #56, .T. ) ;
#136 = DATE_AND_TIME ( #123, #125 ) ;
#137 = AXIS2_PLACEMENT_3D ( 'NONE', #83, #145, #39 ) ;
#138 = PERSON_AND_ORGANIZATION ( #49, #101 ) ;
#139 = AXIS2_PLACEMENT_3D ( 'NONE', #37, #167, #112 ) ;
#140 = CC_DESIGN_SECURITY_CLASSIFICATION ( #66, ( #169 ) ) ;
#141 = CALENDAR_DATE ( 2021, 6, 12 ) ;
#142 = PRODUCT_DEFINITION ( 'UNKNOWN', '', #169, #4 ) ;
#143 = LOCAL_TIME ( 13, 59, 23.00000000000000000, #35 ) ;
#144 = CARTESIAN_POINT ( 'NONE',  ( 0.0000000000000000000, 0.0000000000000000000, 0.0000000000000000000 ) ) ;
#145 = DIRECTION ( 'NONE',  ( -3.491481338843133355E-15, 1.836970198721030378E-15, -1.000000000000000000 ) ) ;
#146 = DIRECTION ( 'NONE',  ( -3.491481338843133355E-15, 1.836970198721030378E-15, -1.000000000000000000 ) ) ;
#147 = APPROVAL ( #6, 'UNSPECIFIED' ) ;
#148 = VERTEX_POINT ( 'NONE', #18 ) ;
#149 = ADVANCED_BREP_SHAPE_REPRESENTATION ( '36382', ( #77, #139 ), #28 ) ;
#150 = PERSON_AND_ORGANIZATION_ROLE ( 'creator' ) ;
#151 = CARTESIAN_POINT ( 'NONE',  ( 6.982962677686266711E-16, 2.500000000000000444, 0.1999999999999999833 ) ) ;
#152 = APPROVAL_DATE_TIME ( #11, #88 ) ;
#153 = ADVANCED_FACE ( 'NONE', ( #84, #99 ), #22, .F. ) ;
#154 = CLOSED_SHELL ( 'NONE', ( #20, #43, #36, #153 ) ) ;
#155 = EDGE_CURVE ( 'NONE', #124, #124, #51, .T. ) ;
#156 = EDGE_LOOP ( 'NONE', ( #157 ) ) ;
#157 = ORIENTED_EDGE ( 'NONE', *, *, #29, .T. ) ;
#158 = DATE_AND_TIME ( #105, #168 ) ;
#159 = CARTESIAN_POINT ( 'NONE',  ( -1.603436792211359731E-29, 2.500000000000000000, -4.592425496802575944E-15 ) ) ;
#160 = CC_DESIGN_PERSON_AND_ORGANIZATION_ASSIGNMENT ( #76, #41, ( #169 ) ) ;
#161 = ORIENTED_EDGE ( 'NONE', *, *, #135, .T. ) ;
#162 = FACE_BOUND ( 'NONE', #12, .T. ) ;
#163 = PRODUCT_RELATED_PRODUCT_CATEGORY ( 'detail', '', ( #102 ) ) ;
#164 = DIRECTION ( 'NONE',  ( 6.413747168845439486E-30, 1.000000000000000000, 1.836970198721029983E-15 ) ) ;
#165 = CALENDAR_DATE ( 2021, 6, 12 ) ;
#166 = VERTEX_POINT ( 'NONE', #72 ) ;
#167 = DIRECTION ( 'NONE',  ( 0.0000000000000000000, 0.0000000000000000000, 1.000000000000000000 ) ) ;
#168 = LOCAL_TIME ( 13, 59, 23.00000000000000000, #16 ) ;
#169 = PRODUCT_DEFINITION_FORMATION_WITH_SPECIFIED_SOURCE ( 'ANY', '', #102, .NOT_KNOWN. ) ;
ENDSEC;
END-ISO-10303-21;
