ISO-10303-21;
HEADER;
FILE_DESCRIPTION (( 'STEP AP203' ),
    '1' );
FILE_NAME ('36365.step',
    '2021-12-06T12:59:22',
    ( '' ),
    ( '' ),
    'SwSTEP 2.0',
    'SolidWorks 2019',
    '' );
FILE_SCHEMA (( 'CONFIG_CONTROL_DESIGN' ));
ENDSEC;

DATA;
#1 = FACE_OUTER_BOUND ( 'NONE', #79, .T. ) ;
#2 = APPLICATION_PROTOCOL_DEFINITION ( 'international standard', 'config_control_design', 1994, #100 ) ;
#3 = CARTESIAN_POINT ( 'NONE',  ( 0.0000000000000000000, 0.0000000000000000000, 0.0000000000000000000 ) ) ;
#4 = PERSON_AND_ORGANIZATION ( #32, #72 ) ;
#5 = AXIS2_PLACEMENT_3D ( 'NONE', #16, #153, #93 ) ;
#6 = CARTESIAN_POINT ( 'NONE',  ( 2.444036937190192560E-15, 4.000000000000003553, 0.6999999999999996225 ) ) ;
#7 = CALENDAR_DATE ( 2021, 6, 12 ) ;
#8 = APPROVAL_PERSON_ORGANIZATION ( #4, #61, #112 ) ;
#9 = DATE_AND_TIME ( #40, #150 ) ;
#10 = PRODUCT_DEFINITION_FORMATION_WITH_SPECIFIED_SOURCE ( 'ANY', '', #63, .NOT_KNOWN. ) ;
#11 = EDGE_CURVE ( 'NONE', #37, #37, #65, .T. ) ;
#12 = DATE_AND_TIME ( #54, #95 ) ;
#13 = CC_DESIGN_DATE_AND_TIME_ASSIGNMENT ( #35, #73, ( #151 ) ) ;
#14 = ORIENTED_EDGE ( 'NONE', *, *, #11, .T. ) ;
#15 = FACE_BOUND ( 'NONE', #108, .T. ) ;
#16 = CARTESIAN_POINT ( 'NONE',  ( 2.444036937190185066E-15, 4.000000000000003553, 0.6999999999999976241 ) ) ;
#17 = ADVANCED_FACE ( 'NONE', ( #15, #102 ), #144, .T. ) ;
#18 = CARTESIAN_POINT ( 'NONE',  ( 0.0000000000000000000, 12.49999999999999645, 0.0000000000000000000 ) ) ;
#19 = MECHANICAL_CONTEXT ( 'NONE', #44, 'mechanical' ) ;
#20 = CC_DESIGN_APPROVAL ( #125, ( #10 ) ) ;
#21 = CC_DESIGN_SECURITY_CLASSIFICATION ( #84, ( #10 ) ) ;
#22 = FACE_OUTER_BOUND ( 'NONE', #68, .T. ) ;
#23 = PERSON_AND_ORGANIZATION ( #32, #72 ) ;
#24 = FACE_OUTER_BOUND ( 'NONE', #159, .T. ) ;
#25 = PRODUCT_DEFINITION_SHAPE ( 'NONE', 'NONE',  #151 ) ;
#26 = AXIS2_PLACEMENT_3D ( 'NONE', #163, #148, #124 ) ;
#27 = APPROVAL_DATE_TIME ( #152, #130 ) ;
#28 = LOCAL_TIME ( 13, 59, 22.00000000000000000, #128 ) ;
#29 = ORIENTED_EDGE ( 'NONE', *, *, #48, .F. ) ;
#30 = APPROVAL_ROLE ( '' ) ;
#31 = FACE_OUTER_BOUND ( 'NONE', #70, .T. ) ;
#32 = PERSON ( 'UNSPECIFIED', 'UNSPECIFIED', 'UNSPECIFIED', ('UNSPECIFIED'), ('UNSPECIFIED'), ('UNSPECIFIED') ) ;
#33 = DIRECTION ( 'NONE',  ( -3.491481338843133355E-15, 5.248486282060088061E-16, -1.000000000000000000 ) ) ;
#34 = CYLINDRICAL_SURFACE ( 'NONE', #168, 4.000000000000001776 ) ;
#35 = DATE_AND_TIME ( #149, #129 ) ;
#36 = PERSON_AND_ORGANIZATION_ROLE ( 'design_owner' ) ;
#37 = VERTEX_POINT ( 'NONE', #115 ) ;
#38 = ADVANCED_BREP_SHAPE_REPRESENTATION ( '36365', ( #78, #110 ), #87 ) ;
#39 = CC_DESIGN_PERSON_AND_ORGANIZATION_ASSIGNMENT ( #67, #142, ( #84 ) ) ;
#40 = CALENDAR_DATE ( 2021, 6, 12 ) ;
#41 = PERSON_AND_ORGANIZATION_ROLE ( 'design_supplier' ) ;
#42 = APPROVAL_DATE_TIME ( #12, #125 ) ;
#43 = PLANE ( 'NONE',  #58 ) ;
#44 = APPLICATION_CONTEXT ( 'configuration controlled 3d designs of mechanical parts and assemblies' ) ;
#45 = CC_DESIGN_PERSON_AND_ORGANIZATION_ASSIGNMENT ( #92, #41, ( #10 ) ) ;
#46 = AXIS2_PLACEMENT_3D ( 'NONE', #81, #137, #126 ) ;
#47 = DATE_AND_TIME ( #161, #59 ) ;
#48 = EDGE_CURVE ( 'NONE', #116, #116, #62, .T. ) ;
#49 = VERTEX_POINT ( 'NONE', #6 ) ;
#50 = COORDINATED_UNIVERSAL_TIME_OFFSET ( 1, 0, .AHEAD. ) ;
#51 =( NAMED_UNIT ( * ) PLANE_ANGLE_UNIT ( ) SI_UNIT ( $, .RADIAN. ) );
#52 = DIRECTION ( 'NONE',  ( 1.832499191098697947E-30, 1.000000000000000000, 5.248486282060088061E-16 ) ) ;
#53 = CC_DESIGN_PERSON_AND_ORGANIZATION_ASSIGNMENT ( #83, #36, ( #63 ) ) ;
#54 = CALENDAR_DATE ( 2021, 6, 12 ) ;
#55 = SHAPE_DEFINITION_REPRESENTATION ( #25, #38 ) ;
#56 = CARTESIAN_POINT ( 'NONE',  ( -7.329996764394791788E-30, 1.101864330118917256E-30, -2.099394512824035225E-15 ) ) ;
#57 = ORIENTED_EDGE ( 'NONE', *, *, #104, .F. ) ;
#58 = AXIS2_PLACEMENT_3D ( 'NONE', #60, #91, #158 ) ;
#59 = LOCAL_TIME ( 13, 59, 22.00000000000000000, #50 ) ;
#60 = CARTESIAN_POINT ( 'NONE',  ( -7.788121562169461633E-30, 4.000000000000000000, -2.230606669875536662E-15 ) ) ;
#61 = APPROVAL ( #111, 'UNSPECIFIED' ) ;
#62 = CIRCLE ( 'NONE', #127, 12.49999999999999645 ) ;
#63 = PRODUCT ( '36365', '36365', '', ( #19 ) ) ;
#64 = PERSON_AND_ORGANIZATION ( #32, #72 ) ;
#65 = CIRCLE ( 'NONE', #154, 4.000000000000000000 ) ;
#66 = DIRECTION ( 'NONE',  ( 0.0000000000000000000, 0.0000000000000000000, 1.000000000000000000 ) ) ;
#67 = PERSON_AND_ORGANIZATION ( #32, #72 ) ;
#68 = EDGE_LOOP ( 'NONE', ( #57 ) ) ;
#69 = COORDINATED_UNIVERSAL_TIME_OFFSET ( 1, 0, .AHEAD. ) ;
#70 = EDGE_LOOP ( 'NONE', ( #145 ) ) ;
#71 = PERSON_AND_ORGANIZATION ( #32, #72 ) ;
#72 = ORGANIZATION ( 'UNSPECIFIED', 'UNSPECIFIED', '' ) ;
#73 = DATE_TIME_ROLE ( 'creation_date' ) ;
#74 = APPROVAL_STATUS ( 'not_yet_approved' ) ;
#75 = DESIGN_CONTEXT ( 'detailed design', #100, 'design' ) ;
#76 = DIRECTION ( 'NONE',  ( -3.491481338843133355E-15, 5.248486282060088061E-16, -1.000000000000000000 ) ) ;
#77 = AXIS2_PLACEMENT_3D ( 'NONE', #96, #33, #80 ) ;
#78 = MANIFOLD_SOLID_BREP ( 'Corps-Déplacer/Copier1', #135 ) ;
#79 = EDGE_LOOP ( 'NONE', ( #131 ) ) ;
#80 = DIRECTION ( 'NONE',  ( 1.832499191098697597E-30, 1.000000000000000000, 5.248486282060089047E-16 ) ) ;
#81 = CARTESIAN_POINT ( 'NONE',  ( 2.444036937190185066E-15, -3.673940397442049021E-16, 0.6999999999999976241 ) ) ;
#82 = CARTESIAN_POINT ( 'NONE',  ( 0.0000000000000000000, 0.0000000000000000000, 0.0000000000000000000 ) ) ;
#83 = PERSON_AND_ORGANIZATION ( #32, #72 ) ;
#84 = SECURITY_CLASSIFICATION ( '', '', #90 ) ;
#85 = APPROVAL_DATE_TIME ( #47, #61 ) ;
#86 =( NAMED_UNIT ( * ) SI_UNIT ( $, .STERADIAN. ) SOLID_ANGLE_UNIT ( ) );
#87 =( GEOMETRIC_REPRESENTATION_CONTEXT ( 3 ) GLOBAL_UNCERTAINTY_ASSIGNED_CONTEXT ( ( #140 ) ) GLOBAL_UNIT_ASSIGNED_CONTEXT ( ( #138, #51, #86 ) ) REPRESENTATION_CONTEXT ( 'NONE', 'WORKASPACE' ) );
#88 = CC_DESIGN_APPROVAL ( #61, ( #151 ) ) ;
#89 = CC_DESIGN_DATE_AND_TIME_ASSIGNMENT ( #9, #103, ( #84 ) ) ;
#90 = SECURITY_CLASSIFICATION_LEVEL ( 'unclassified' ) ;
#91 = DIRECTION ( 'NONE',  ( -3.491481338843133355E-15, 5.248486282060088061E-16, -1.000000000000000000 ) ) ;
#92 = PERSON_AND_ORGANIZATION ( #32, #72 ) ;
#93 = DIRECTION ( 'NONE',  ( -1.832499191098697597E-30, -1.000000000000000000, -5.248486282060088061E-16 ) ) ;
#94 = ADVANCED_FACE ( 'NONE', ( #31, #109 ), #43, .T. ) ;
#95 = LOCAL_TIME ( 13, 59, 22.00000000000000000, #69 ) ;
#96 = CARTESIAN_POINT ( 'NONE',  ( -2.290623988873371365E-29, 3.443326031621614957E-30, -6.560607852575108943E-15 ) ) ;
#97 = CIRCLE ( 'NONE', #46, 4.000000000000003553 ) ;
#98 = EDGE_LOOP ( 'NONE', ( #29 ) ) ;
#99 = CYLINDRICAL_SURFACE ( 'NONE', #26, 12.49999999999999645 ) ;
#100 = APPLICATION_CONTEXT ( 'configuration controlled 3d designs of mechanical parts and assemblies' ) ;
#101 = APPROVAL_ROLE ( '' ) ;
#102 = FACE_OUTER_BOUND ( 'NONE', #98, .T. ) ;
#103 = DATE_TIME_ROLE ( 'classification_date' ) ;
#104 = EDGE_CURVE ( 'NONE', #164, #164, #146, .T. ) ;
#105 = ORIENTED_EDGE ( 'NONE', *, *, #156, .F. ) ;
#106 = APPROVAL_PERSON_ORGANIZATION ( #23, #125, #101 ) ;
#107 = CC_DESIGN_APPROVAL ( #130, ( #84 ) ) ;
#108 = EDGE_LOOP ( 'NONE', ( #120 ) ) ;
#109 = FACE_BOUND ( 'NONE', #133, .T. ) ;
#110 = AXIS2_PLACEMENT_3D ( 'NONE', #82, #66, #114 ) ;
#111 = APPROVAL_STATUS ( 'not_yet_approved' ) ;
#112 = APPROVAL_ROLE ( '' ) ;
#113 = PRODUCT_RELATED_PRODUCT_CATEGORY ( 'detail', '', ( #63 ) ) ;
#114 = DIRECTION ( 'NONE',  ( 1.000000000000000000, 0.0000000000000000000, 0.0000000000000000000 ) ) ;
#115 = CARTESIAN_POINT ( 'NONE',  ( 0.0000000000000000000, 4.000000000000000000, 0.0000000000000000000 ) ) ;
#116 = VERTEX_POINT ( 'NONE', #147 ) ;
#117 = PERSON_AND_ORGANIZATION ( #32, #72 ) ;
#118 = CC_DESIGN_PERSON_AND_ORGANIZATION_ASSIGNMENT ( #71, #167, ( #10 ) ) ;
#119 = APPROVAL_STATUS ( 'not_yet_approved' ) ;
#120 = ORIENTED_EDGE ( 'NONE', *, *, #156, .T. ) ;
#121 = DIRECTION ( 'NONE',  ( 1.832499191098697947E-30, 1.000000000000000000, 5.248486282060088061E-16 ) ) ;
#122 = EDGE_LOOP ( 'NONE', ( #14 ) ) ;
#123 = APPLICATION_PROTOCOL_DEFINITION ( 'international standard', 'config_control_design', 1994, #44 ) ;
#124 = DIRECTION ( 'NONE',  ( 1.832499191098697597E-30, 1.000000000000000000, 5.248486282060089047E-16 ) ) ;
#125 = APPROVAL ( #74, 'UNSPECIFIED' ) ;
#126 = DIRECTION ( 'NONE',  ( 1.829633447167872309E-30, 1.000000000000000000, 5.149960319306141131E-16 ) ) ;
#127 = AXIS2_PLACEMENT_3D ( 'NONE', #132, #157, #143 ) ;
#128 = COORDINATED_UNIVERSAL_TIME_OFFSET ( 1, 0, .AHEAD. ) ;
#129 = LOCAL_TIME ( 13, 59, 22.00000000000000000, #162 ) ;
#130 = APPROVAL ( #119, 'UNSPECIFIED' ) ;
#131 = ORIENTED_EDGE ( 'NONE', *, *, #48, .T. ) ;
#132 = CARTESIAN_POINT ( 'NONE',  ( 2.444036937190170472E-15, -3.673940397442027328E-16, 0.6999999999999935163 ) ) ;
#133 = EDGE_LOOP ( 'NONE', ( #166 ) ) ;
#134 = ADVANCED_FACE ( 'NONE', ( #136, #24 ), #34, .F. ) ;
#135 = CLOSED_SHELL ( 'NONE', ( #94, #141, #17, #134 ) ) ;
#136 = FACE_OUTER_BOUND ( 'NONE', #122, .T. ) ;
#137 = DIRECTION ( 'NONE',  ( -3.491481338843133355E-15, 5.248486282060088061E-16, -1.000000000000000000 ) ) ;
#138 =( LENGTH_UNIT ( ) NAMED_UNIT ( * ) SI_UNIT ( .MILLI., .METRE. ) );
#139 = PERSON_AND_ORGANIZATION_ROLE ( 'creator' ) ;
#140 = UNCERTAINTY_MEASURE_WITH_UNIT (LENGTH_MEASURE( 1.000000000000000082E-05 ), #138, 'distance_accuracy_value', 'NONE');
#141 = ADVANCED_FACE ( 'NONE', ( #1, #22 ), #99, .T. ) ;
#142 = PERSON_AND_ORGANIZATION_ROLE ( 'classification_officer' ) ;
#143 = DIRECTION ( 'NONE',  ( 1.818077867501550996E-30, 1.000000000000000000, 5.290906601729263610E-16 ) ) ;
#144 = PLANE ( 'NONE',  #5 ) ;
#145 = ORIENTED_EDGE ( 'NONE', *, *, #104, .T. ) ;
#146 = CIRCLE ( 'NONE', #77, 12.49999999999999645 ) ;
#147 = CARTESIAN_POINT ( 'NONE',  ( 2.444036937190193349E-15, 12.49999999999999645, 0.7000000000000000666 ) ) ;
#148 = DIRECTION ( 'NONE',  ( -3.491481338843133355E-15, 5.248486282060088061E-16, -1.000000000000000000 ) ) ;
#149 = CALENDAR_DATE ( 2021, 6, 12 ) ;
#150 = LOCAL_TIME ( 13, 59, 22.00000000000000000, #165 ) ;
#151 = PRODUCT_DEFINITION ( 'UNKNOWN', '', #10, #75 ) ;
#152 = DATE_AND_TIME ( #7, #28 ) ;
#153 = DIRECTION ( 'NONE',  ( 3.491481338843133355E-15, -5.248486282060088061E-16, 1.000000000000000000 ) ) ;
#154 = AXIS2_PLACEMENT_3D ( 'NONE', #56, #155, #121 ) ;
#155 = DIRECTION ( 'NONE',  ( -3.491481338843133355E-15, 5.248486282060088061E-16, -1.000000000000000000 ) ) ;
#156 = EDGE_CURVE ( 'NONE', #49, #49, #97, .T. ) ;
#157 = DIRECTION ( 'NONE',  ( -3.491481338843133355E-15, 5.248486282060088061E-16, -1.000000000000000000 ) ) ;
#158 = DIRECTION ( 'NONE',  ( 1.832499191098697597E-30, 1.000000000000000000, 5.248486282060088061E-16 ) ) ;
#159 = EDGE_LOOP ( 'NONE', ( #105 ) ) ;
#160 = APPROVAL_PERSON_ORGANIZATION ( #117, #130, #30 ) ;
#161 = CALENDAR_DATE ( 2021, 6, 12 ) ;
#162 = COORDINATED_UNIVERSAL_TIME_OFFSET ( 1, 0, .AHEAD. ) ;
#163 = CARTESIAN_POINT ( 'NONE',  ( 0.0000000000000000000, 0.0000000000000000000, 0.0000000000000000000 ) ) ;
#164 = VERTEX_POINT ( 'NONE', #18 ) ;
#165 = COORDINATED_UNIVERSAL_TIME_OFFSET ( 1, 0, .AHEAD. ) ;
#166 = ORIENTED_EDGE ( 'NONE', *, *, #11, .F. ) ;
#167 = PERSON_AND_ORGANIZATION_ROLE ( 'creator' ) ;
#168 = AXIS2_PLACEMENT_3D ( 'NONE', #3, #76, #52 ) ;
#169 = CC_DESIGN_PERSON_AND_ORGANIZATION_ASSIGNMENT ( #64, #139, ( #151 ) ) ;
ENDSEC;
END-ISO-10303-21;
