ISO-10303-21;
HEADER;
FILE_DESCRIPTION (( 'STEP AP203' ),
    '1' );
FILE_NAME ('36364.step',
    '2021-12-06T12:59:21',
    ( '' ),
    ( '' ),
    'SwSTEP 2.0',
    'SolidWorks 2019',
    '' );
FILE_SCHEMA (( 'CONFIG_CONTROL_DESIGN' ));
ENDSEC;

DATA;
#1 = CARTESIAN_POINT ( 'NONE',  ( -8.337871319499069370E-30, 11.00000000000000000, -2.388061258337338939E-15 ) ) ;
#2 = DIRECTION ( 'NONE',  ( 0.0000000000000000000, 0.0000000000000000000, 1.000000000000000000 ) ) ;
#3 = UNCERTAINTY_MEASURE_WITH_UNIT (LENGTH_MEASURE( 1.000000000000000082E-05 ), #31, 'distance_accuracy_value', 'NONE');
#4 = AXIS2_PLACEMENT_3D ( 'NONE', #106, #95, #107 ) ;
#5 = CARTESIAN_POINT ( 'NONE',  ( 0.0000000000000000000, 11.00000000000000000, 0.0000000000000000000 ) ) ;
#6 = APPROVAL_ROLE ( '' ) ;
#7 = CARTESIAN_POINT ( 'NONE',  ( 0.0000000000000000000, 50.00000000000000000, 0.0000000000000000000 ) ) ;
#8 = MANIFOLD_SOLID_BREP ( 'Corps-Déplacer/Copier1', #75 ) ;
#9 = ORIENTED_EDGE ( 'NONE', *, *, #84, .F. ) ;
#10 = EDGE_LOOP ( 'NONE', ( #23 ) ) ;
#11 = DIRECTION ( 'NONE',  ( -3.491481338843133355E-15, 1.224646799147353207E-16, -1.000000000000000000 ) ) ;
#12 = DIRECTION ( 'NONE',  ( -3.491481338843133355E-15, 1.224646799147353207E-16, -1.000000000000000000 ) ) ;
#13 = CALENDAR_DATE ( 2021, 6, 12 ) ;
#14 = CC_DESIGN_PERSON_AND_ORGANIZATION_ASSIGNMENT ( #126, #60, ( #154 ) ) ;
#15 = AXIS2_PLACEMENT_3D ( 'NONE', #138, #2, #146 ) ;
#16 = PERSON_AND_ORGANIZATION_ROLE ( 'creator' ) ;
#17 = EDGE_CURVE ( 'NONE', #85, #85, #129, .T. ) ;
#18 = PRODUCT_DEFINITION_FORMATION_WITH_SPECIFIED_SOURCE ( 'ANY', '', #64, .NOT_KNOWN. ) ;
#19 = APPROVAL_STATUS ( 'not_yet_approved' ) ;
#20 = DIRECTION ( 'NONE',  ( 4.275831445896958607E-31, 1.000000000000000000, 1.224646799147353207E-16 ) ) ;
#21 = AXIS2_PLACEMENT_3D ( 'NONE', #1, #157, #44 ) ;
#22 = CC_DESIGN_APPROVAL ( #35, ( #63 ) ) ;
#23 = ORIENTED_EDGE ( 'NONE', *, *, #57, .F. ) ;
#24 = ORIENTED_EDGE ( 'NONE', *, *, #17, .F. ) ;
#25 = CARTESIAN_POINT ( 'NONE',  ( 1.047444401652939533E-14, -3.673940397442058389E-16, 2.999999999999998668 ) ) ;
#26 = APPROVAL ( #96, 'UNSPECIFIED' ) ;
#27 = CYLINDRICAL_SURFACE ( 'NONE', #152, 11.00000000000000000 ) ;
#28 = AXIS2_PLACEMENT_3D ( 'NONE', #33, #12, #49 ) ;
#29 = DESIGN_CONTEXT ( 'detailed design', #166, 'design' ) ;
#30 = DATE_AND_TIME ( #99, #54 ) ;
#31 =( LENGTH_UNIT ( ) NAMED_UNIT ( * ) SI_UNIT ( .MILLI., .METRE. ) );
#32 = CC_DESIGN_PERSON_AND_ORGANIZATION_ASSIGNMENT ( #102, #55, ( #63 ) ) ;
#33 = CARTESIAN_POINT ( 'NONE',  ( -4.703414590486653942E-30, 1.649735760928043369E-31, -1.347111479062088405E-15 ) ) ;
#34 = APPROVAL_STATUS ( 'not_yet_approved' ) ;
#35 = APPROVAL ( #19, 'UNSPECIFIED' ) ;
#36 = PERSON_AND_ORGANIZATION ( #70, #42 ) ;
#37 = CC_DESIGN_APPROVAL ( #153, ( #18 ) ) ;
#38 = DATE_AND_TIME ( #156, #165 ) ;
#39 = ADVANCED_FACE ( 'NONE', ( #78, #169 ), #79, .T. ) ;
#40 = CC_DESIGN_APPROVAL ( #26, ( #154 ) ) ;
#41 = CC_DESIGN_DATE_AND_TIME_ASSIGNMENT ( #30, #148, ( #154 ) ) ;
#42 = ORGANIZATION ( 'UNSPECIFIED', 'UNSPECIFIED', '' ) ;
#43 = ORIENTED_EDGE ( 'NONE', *, *, #17, .T. ) ;
#44 = DIRECTION ( 'NONE',  ( 4.275831445896958607E-31, 1.000000000000000000, 1.224646799147353207E-16 ) ) ;
#45 = ORIENTED_EDGE ( 'NONE', *, *, #113, .T. ) ;
#46 = PERSON_AND_ORGANIZATION_ROLE ( 'design_owner' ) ;
#47 = AXIS2_PLACEMENT_3D ( 'NONE', #100, #48, #69 ) ;
#48 = DIRECTION ( 'NONE',  ( 3.491481338843133355E-15, -1.224646799147353207E-16, 1.000000000000000000 ) ) ;
#49 = DIRECTION ( 'NONE',  ( 4.275831445896957731E-31, 1.000000000000000000, 1.224646799147353207E-16 ) ) ;
#50 = CIRCLE ( 'NONE', #28, 11.00000000000000000 ) ;
#51 = DIRECTION ( 'NONE',  ( -3.491481338843133355E-15, 1.224646799147353207E-16, -1.000000000000000000 ) ) ;
#52 = SECURITY_CLASSIFICATION_LEVEL ( 'unclassified' ) ;
#53 = ADVANCED_FACE ( 'NONE', ( #66, #120 ), #109, .T. ) ;
#54 = LOCAL_TIME ( 13, 59, 21.00000000000000000, #162 ) ;
#55 = PERSON_AND_ORGANIZATION_ROLE ( 'classification_officer' ) ;
#56 = AXIS2_PLACEMENT_3D ( 'NONE', #130, #11, #20 ) ;
#57 = EDGE_CURVE ( 'NONE', #115, #115, #147, .T. ) ;
#58 = CARTESIAN_POINT ( 'NONE',  ( -2.137915722948479268E-29, 7.498798913309288477E-31, -6.123233995736766085E-15 ) ) ;
#59 = DIRECTION ( 'NONE',  ( 4.275831445896958607E-31, 1.000000000000000000, 1.224646799147353207E-16 ) ) ;
#60 = PERSON_AND_ORGANIZATION_ROLE ( 'creator' ) ;
#61 = PERSON_AND_ORGANIZATION ( #70, #42 ) ;
#62 = COORDINATED_UNIVERSAL_TIME_OFFSET ( 1, 0, .AHEAD. ) ;
#63 = SECURITY_CLASSIFICATION ( '', '', #52 ) ;
#64 = PRODUCT ( '36364', '36364', '', ( #159 ) ) ;
#65 = EDGE_LOOP ( 'NONE', ( #92 ) ) ;
#66 = FACE_OUTER_BOUND ( 'NONE', #141, .T. ) ;
#67 = LOCAL_TIME ( 13, 59, 21.00000000000000000, #135 ) ;
#68 = EDGE_LOOP ( 'NONE', ( #24 ) ) ;
#69 = DIRECTION ( 'NONE',  ( -4.275831445896958607E-31, -1.000000000000000000, -1.224646799147353207E-16 ) ) ;
#70 = PERSON ( 'UNSPECIFIED', 'UNSPECIFIED', 'UNSPECIFIED', ('UNSPECIFIED'), ('UNSPECIFIED'), ('UNSPECIFIED') ) ;
#71 = FACE_OUTER_BOUND ( 'NONE', #68, .T. ) ;
#72 = DATE_AND_TIME ( #13, #67 ) ;
#73 = CALENDAR_DATE ( 2021, 6, 12 ) ;
#74 = CC_DESIGN_PERSON_AND_ORGANIZATION_ASSIGNMENT ( #168, #164, ( #18 ) ) ;
#75 = CLOSED_SHELL ( 'NONE', ( #53, #39, #134, #80 ) ) ;
#76 = CALENDAR_DATE ( 2021, 6, 12 ) ;
#77 = AXIS2_PLACEMENT_3D ( 'NONE', #58, #51, #59 ) ;
#78 = FACE_OUTER_BOUND ( 'NONE', #143, .T. ) ;
#79 = CYLINDRICAL_SURFACE ( 'NONE', #56, 50.00000000000000000 ) ;
#80 = ADVANCED_FACE ( 'NONE', ( #121, #158 ), #27, .F. ) ;
#81 = DIRECTION ( 'NONE',  ( 4.202028969572151271E-31, 1.000000000000000000, 1.182766006347823109E-16 ) ) ;
#82 = CARTESIAN_POINT ( 'NONE',  ( 0.0000000000000000000, 0.0000000000000000000, 0.0000000000000000000 ) ) ;
#83 = ADVANCED_BREP_SHAPE_REPRESENTATION ( '36364', ( #8, #15 ), #111 ) ;
#84 = EDGE_CURVE ( 'NONE', #87, #87, #50, .T. ) ;
#85 = VERTEX_POINT ( 'NONE', #136 ) ;
#86 = FACE_BOUND ( 'NONE', #119, .T. ) ;
#87 = VERTEX_POINT ( 'NONE', #5 ) ;
#88 = APPROVAL_DATE_TIME ( #151, #35 ) ;
#89 = APPROVAL_ROLE ( '' ) ;
#90 = APPROVAL_PERSON_ORGANIZATION ( #133, #26, #6 ) ;
#91 = ORIENTED_EDGE ( 'NONE', *, *, #57, .T. ) ;
#92 = ORIENTED_EDGE ( 'NONE', *, *, #113, .F. ) ;
#93 = COORDINATED_UNIVERSAL_TIME_OFFSET ( 1, 0, .AHEAD. ) ;
#94 = APPROVAL_PERSON_ORGANIZATION ( #61, #153, #140 ) ;
#95 = DIRECTION ( 'NONE',  ( -3.491481338843133355E-15, 1.224646799147353207E-16, -1.000000000000000000 ) ) ;
#96 = APPROVAL_STATUS ( 'not_yet_approved' ) ;
#97 =( NAMED_UNIT ( * ) SI_UNIT ( $, .STERADIAN. ) SOLID_ANGLE_UNIT ( ) );
#98 = APPROVAL_PERSON_ORGANIZATION ( #139, #35, #89 ) ;
#99 = CALENDAR_DATE ( 2021, 6, 12 ) ;
#100 = CARTESIAN_POINT ( 'NONE',  ( 1.047444401652939060E-14, 11.00000000000000000, 2.999999999999997335 ) ) ;
#101 = DATE_AND_TIME ( #76, #108 ) ;
#102 = PERSON_AND_ORGANIZATION ( #70, #42 ) ;
#103 = APPLICATION_CONTEXT ( 'configuration controlled 3d designs of mechanical parts and assemblies' ) ;
#104 = AXIS2_PLACEMENT_3D ( 'NONE', #25, #131, #81 ) ;
#105 = DATE_TIME_ROLE ( 'classification_date' ) ;
#106 = CARTESIAN_POINT ( 'NONE',  ( 1.047444401652937956E-14, -3.673940397442052472E-16, 2.999999999999993783 ) ) ;
#107 = DIRECTION ( 'NONE',  ( 4.314083075427408311E-31, 1.000000000000000000, 1.214306433183764966E-16 ) ) ;
#108 = LOCAL_TIME ( 13, 59, 21.00000000000000000, #155 ) ;
#109 = PLANE ( 'NONE',  #21 ) ;
#110 = VERTEX_POINT ( 'NONE', #7 ) ;
#111 =( GEOMETRIC_REPRESENTATION_CONTEXT ( 3 ) GLOBAL_UNCERTAINTY_ASSIGNED_CONTEXT ( ( #3 ) ) GLOBAL_UNIT_ASSIGNED_CONTEXT ( ( #31, #145, #97 ) ) REPRESENTATION_CONTEXT ( 'NONE', 'WORKASPACE' ) );
#112 = PLANE ( 'NONE',  #47 ) ;
#113 = EDGE_CURVE ( 'NONE', #110, #110, #128, .T. ) ;
#114 = APPROVAL_DATE_TIME ( #72, #26 ) ;
#115 = VERTEX_POINT ( 'NONE', #150 ) ;
#116 = PRODUCT_RELATED_PRODUCT_CATEGORY ( 'detail', '', ( #64 ) ) ;
#117 = SHAPE_DEFINITION_REPRESENTATION ( #122, #83 ) ;
#118 = APPROVAL_DATE_TIME ( #38, #153 ) ;
#119 = EDGE_LOOP ( 'NONE', ( #91 ) ) ;
#120 = FACE_BOUND ( 'NONE', #142, .T. ) ;
#121 = FACE_OUTER_BOUND ( 'NONE', #132, .T. ) ;
#122 = PRODUCT_DEFINITION_SHAPE ( 'NONE', 'NONE',  #154 ) ;
#123 = DIRECTION ( 'NONE',  ( -3.491481338843133355E-15, 1.224646799147353207E-16, -1.000000000000000000 ) ) ;
#124 = CC_DESIGN_SECURITY_CLASSIFICATION ( #63, ( #18 ) ) ;
#125 = CC_DESIGN_PERSON_AND_ORGANIZATION_ASSIGNMENT ( #36, #16, ( #18 ) ) ;
#126 = PERSON_AND_ORGANIZATION ( #70, #42 ) ;
#127 = PERSON_AND_ORGANIZATION ( #70, #42 ) ;
#128 = CIRCLE ( 'NONE', #77, 50.00000000000000000 ) ;
#129 = CIRCLE ( 'NONE', #4, 50.00000000000000000 ) ;
#130 = CARTESIAN_POINT ( 'NONE',  ( 0.0000000000000000000, 0.0000000000000000000, 0.0000000000000000000 ) ) ;
#131 = DIRECTION ( 'NONE',  ( -3.491481338843133355E-15, 1.224646799147353207E-16, -1.000000000000000000 ) ) ;
#132 = EDGE_LOOP ( 'NONE', ( #167 ) ) ;
#133 = PERSON_AND_ORGANIZATION ( #70, #42 ) ;
#134 = ADVANCED_FACE ( 'NONE', ( #86, #71 ), #112, .T. ) ;
#135 = COORDINATED_UNIVERSAL_TIME_OFFSET ( 1, 0, .AHEAD. ) ;
#136 = CARTESIAN_POINT ( 'NONE',  ( 1.047444401652940007E-14, 50.00000000000000000, 3.000000000000000000 ) ) ;
#137 = CC_DESIGN_PERSON_AND_ORGANIZATION_ASSIGNMENT ( #127, #46, ( #64 ) ) ;
#138 = CARTESIAN_POINT ( 'NONE',  ( 0.0000000000000000000, 0.0000000000000000000, 0.0000000000000000000 ) ) ;
#139 = PERSON_AND_ORGANIZATION ( #70, #42 ) ;
#140 = APPROVAL_ROLE ( '' ) ;
#141 = EDGE_LOOP ( 'NONE', ( #45 ) ) ;
#142 = EDGE_LOOP ( 'NONE', ( #9 ) ) ;
#143 = EDGE_LOOP ( 'NONE', ( #43 ) ) ;
#144 = APPLICATION_PROTOCOL_DEFINITION ( 'international standard', 'config_control_design', 1994, #103 ) ;
#145 =( NAMED_UNIT ( * ) PLANE_ANGLE_UNIT ( ) SI_UNIT ( $, .RADIAN. ) );
#146 = DIRECTION ( 'NONE',  ( 1.000000000000000000, 0.0000000000000000000, 0.0000000000000000000 ) ) ;
#147 = CIRCLE ( 'NONE', #104, 11.00000000000000000 ) ;
#148 = DATE_TIME_ROLE ( 'creation_date' ) ;
#149 = CC_DESIGN_DATE_AND_TIME_ASSIGNMENT ( #101, #105, ( #63 ) ) ;
#150 = CARTESIAN_POINT ( 'NONE',  ( 1.047444401652940007E-14, 11.00000000000000000, 3.000000000000000000 ) ) ;
#151 = DATE_AND_TIME ( #73, #160 ) ;
#152 = AXIS2_PLACEMENT_3D ( 'NONE', #82, #123, #161 ) ;
#153 = APPROVAL ( #34, 'UNSPECIFIED' ) ;
#154 = PRODUCT_DEFINITION ( 'UNKNOWN', '', #18, #29 ) ;
#155 = COORDINATED_UNIVERSAL_TIME_OFFSET ( 1, 0, .AHEAD. ) ;
#156 = CALENDAR_DATE ( 2021, 6, 12 ) ;
#157 = DIRECTION ( 'NONE',  ( -3.491481338843133355E-15, 1.224646799147353207E-16, -1.000000000000000000 ) ) ;
#158 = FACE_OUTER_BOUND ( 'NONE', #10, .T. ) ;
#159 = MECHANICAL_CONTEXT ( 'NONE', #103, 'mechanical' ) ;
#160 = LOCAL_TIME ( 13, 59, 21.00000000000000000, #93 ) ;
#161 = DIRECTION ( 'NONE',  ( 4.275831445896957731E-31, 1.000000000000000000, 1.224646799147353207E-16 ) ) ;
#162 = COORDINATED_UNIVERSAL_TIME_OFFSET ( 1, 0, .AHEAD. ) ;
#163 = APPLICATION_PROTOCOL_DEFINITION ( 'international standard', 'config_control_design', 1994, #166 ) ;
#164 = PERSON_AND_ORGANIZATION_ROLE ( 'design_supplier' ) ;
#165 = LOCAL_TIME ( 13, 59, 21.00000000000000000, #62 ) ;
#166 = APPLICATION_CONTEXT ( 'configuration controlled 3d designs of mechanical parts and assemblies' ) ;
#167 = ORIENTED_EDGE ( 'NONE', *, *, #84, .T. ) ;
#168 = PERSON_AND_ORGANIZATION ( #70, #42 ) ;
#169 = FACE_OUTER_BOUND ( 'NONE', #65, .T. ) ;
ENDSEC;
END-ISO-10303-21;
