ISO-10303-21;
HEADER;
FILE_DESCRIPTION (( 'STEP AP203' ),
    '1' );
FILE_NAME ('36363.step',
    '2021-12-06T12:59:21',
    ( '' ),
    ( '' ),
    'SwSTEP 2.0',
    'SolidWorks 2019',
    '' );
FILE_SCHEMA (( 'CONFIG_CONTROL_DESIGN' ));
ENDSEC;

DATA;
#1 =( NAMED_UNIT ( * ) SI_UNIT ( $, .STERADIAN. ) SOLID_ANGLE_UNIT ( ) );
#2 = PERSON_AND_ORGANIZATION ( #80, #108 ) ;
#3 = SECURITY_CLASSIFICATION_LEVEL ( 'unclassified' ) ;
#4 = CARTESIAN_POINT ( 'NONE',  ( 5.237222008264694511E-15, -1.959434878635763011E-16, 1.499999999999998446 ) ) ;
#5 = EDGE_LOOP ( 'NONE', ( #152 ) ) ;
#6 = FACE_OUTER_BOUND ( 'NONE', #103, .T. ) ;
#7 = PRODUCT_RELATED_PRODUCT_CATEGORY ( 'detail', '', ( #120 ) ) ;
#8 = CARTESIAN_POINT ( 'NONE',  ( -2.280443437811711257E-29, 8.531966763587456030E-31, -6.531449595452550701E-15 ) ) ;
#9 = APPROVAL_PERSON_ORGANIZATION ( #96, #147, #135 ) ;
#10 = DIRECTION ( 'NONE',  ( 4.622231866529366047E-31, 1.000000000000000000, 1.301042606982605321E-16 ) ) ;
#11 = APPLICATION_PROTOCOL_DEFINITION ( 'international standard', 'config_control_design', 1994, #72 ) ;
#12 = CC_DESIGN_PERSON_AND_ORGANIZATION_ASSIGNMENT ( #125, #90, ( #62 ) ) ;
#13 = CALENDAR_DATE ( 2021, 6, 12 ) ;
#14 = PRODUCT_DEFINITION_SHAPE ( 'NONE', 'NONE',  #115 ) ;
#15 = APPROVAL_PERSON_ORGANIZATION ( #68, #51, #146 ) ;
#16 = CARTESIAN_POINT ( 'NONE',  ( 5.237222008264700033E-15, 50.00000000000000000, 1.500000000000000000 ) ) ;
#17 = CARTESIAN_POINT ( 'NONE',  ( 0.0000000000000000000, 0.0000000000000000000, 0.0000000000000000000 ) ) ;
#18 = SHAPE_DEFINITION_REPRESENTATION ( #14, #100 ) ;
#19 = CC_DESIGN_DATE_AND_TIME_ASSIGNMENT ( #27, #131, ( #115 ) ) ;
#20 = CC_DESIGN_PERSON_AND_ORGANIZATION_ASSIGNMENT ( #110, #151, ( #62 ) ) ;
#21 = DIRECTION ( 'NONE',  ( 4.560886875623422338E-31, 1.000000000000000000, 1.306289919090510071E-16 ) ) ;
#22 = ORIENTED_EDGE ( 'NONE', *, *, #49, .T. ) ;
#23 = FACE_OUTER_BOUND ( 'NONE', #5, .T. ) ;
#24 = ORIENTED_EDGE ( 'NONE', *, *, #160, .F. ) ;
#25 = PERSON_AND_ORGANIZATION_ROLE ( 'creator' ) ;
#26 = DIRECTION ( 'NONE',  ( -3.491481338843133355E-15, 1.306289919090510071E-16, -1.000000000000000000 ) ) ;
#27 = DATE_AND_TIME ( #13, #101 ) ;
#28 = ADVANCED_FACE ( 'NONE', ( #81, #162 ), #129, .T. ) ;
#29 = CC_DESIGN_SECURITY_CLASSIFICATION ( #167, ( #62 ) ) ;
#30 = CARTESIAN_POINT ( 'NONE',  ( 0.0000000000000000000, 11.00000000000000000, 0.0000000000000000000 ) ) ;
#31 = CC_DESIGN_DATE_AND_TIME_ASSIGNMENT ( #77, #148, ( #167 ) ) ;
#32 = CALENDAR_DATE ( 2021, 6, 12 ) ;
#33 = CLOSED_SHELL ( 'NONE', ( #28, #55, #166, #66 ) ) ;
#34 = DIRECTION ( 'NONE',  ( -3.491481338843133355E-15, 1.306289919090510071E-16, -1.000000000000000000 ) ) ;
#35 = FACE_OUTER_BOUND ( 'NONE', #37, .T. ) ;
#36 = CIRCLE ( 'NONE', #104, 50.00000000000000000 ) ;
#37 = EDGE_LOOP ( 'NONE', ( #153 ) ) ;
#38 = VERTEX_POINT ( 'NONE', #84 ) ;
#39 =( GEOMETRIC_REPRESENTATION_CONTEXT ( 3 ) GLOBAL_UNCERTAINTY_ASSIGNED_CONTEXT ( ( #73 ) ) GLOBAL_UNIT_ASSIGNED_CONTEXT ( ( #132, #85, #1 ) ) REPRESENTATION_CONTEXT ( 'NONE', 'WORKASPACE' ) );
#40 = COORDINATED_UNIVERSAL_TIME_OFFSET ( 1, 0, .AHEAD. ) ;
#41 = APPLICATION_CONTEXT ( 'configuration controlled 3d designs of mechanical parts and assemblies' ) ;
#42 = DIRECTION ( 'NONE',  ( 3.491481338843133355E-15, -1.306289919090510071E-16, 1.000000000000000000 ) ) ;
#43 = COORDINATED_UNIVERSAL_TIME_OFFSET ( 1, 0, .AHEAD. ) ;
#44 = COORDINATED_UNIVERSAL_TIME_OFFSET ( 1, 0, .AHEAD. ) ;
#45 = AXIS2_PLACEMENT_3D ( 'NONE', #4, #26, #87 ) ;
#46 = DESIGN_CONTEXT ( 'detailed design', #72, 'design' ) ;
#47 = CARTESIAN_POINT ( 'NONE',  ( 0.0000000000000000000, 0.0000000000000000000, 0.0000000000000000000 ) ) ;
#48 = EDGE_LOOP ( 'NONE', ( #24 ) ) ;
#49 = EDGE_CURVE ( 'NONE', #38, #38, #36, .T. ) ;
#50 = CYLINDRICAL_SURFACE ( 'NONE', #154, 50.00000000000000000 ) ;
#51 = APPROVAL ( #57, 'UNSPECIFIED' ) ;
#52 = ORIENTED_EDGE ( 'NONE', *, *, #136, .T. ) ;
#53 = VERTEX_POINT ( 'NONE', #16 ) ;
#54 = MECHANICAL_CONTEXT ( 'NONE', #41, 'mechanical' ) ;
#55 = ADVANCED_FACE ( 'NONE', ( #6, #164 ), #50, .T. ) ;
#56 = AXIS2_PLACEMENT_3D ( 'NONE', #118, #42, #158 ) ;
#57 = APPROVAL_STATUS ( 'not_yet_approved' ) ;
#58 = APPROVAL_ROLE ( '' ) ;
#59 = AXIS2_PLACEMENT_3D ( 'NONE', #64, #63, #155 ) ;
#60 = APPROVAL_DATE_TIME ( #111, #147 ) ;
#61 = CALENDAR_DATE ( 2021, 6, 12 ) ;
#62 = PRODUCT_DEFINITION_FORMATION_WITH_SPECIFIED_SOURCE ( 'ANY', '', #120, .NOT_KNOWN. ) ;
#63 = DIRECTION ( 'NONE',  ( -3.491481338843133355E-15, 1.306289919090510071E-16, -1.000000000000000000 ) ) ;
#64 = CARTESIAN_POINT ( 'NONE',  ( -8.893729407465673341E-30, 11.00000000000000000, -2.547265342226494553E-15 ) ) ;
#65 = EDGE_LOOP ( 'NONE', ( #99 ) ) ;
#66 = ADVANCED_FACE ( 'NONE', ( #35, #23 ), #83, .F. ) ;
#67 = CC_DESIGN_PERSON_AND_ORGANIZATION_ASSIGNMENT ( #156, #25, ( #115 ) ) ;
#68 = PERSON_AND_ORGANIZATION ( #80, #108 ) ;
#69 = PERSON_AND_ORGANIZATION ( #80, #108 ) ;
#70 = AXIS2_PLACEMENT_3D ( 'NONE', #17, #130, #114 ) ;
#71 = CARTESIAN_POINT ( 'NONE',  ( 5.237222008264677156E-15, -1.959434878635756602E-16, 1.499999999999993561 ) ) ;
#72 = APPLICATION_CONTEXT ( 'configuration controlled 3d designs of mechanical parts and assemblies' ) ;
#73 = UNCERTAINTY_MEASURE_WITH_UNIT (LENGTH_MEASURE( 1.000000000000000082E-05 ), #132, 'distance_accuracy_value', 'NONE');
#74 = CC_DESIGN_PERSON_AND_ORGANIZATION_ASSIGNMENT ( #2, #97, ( #167 ) ) ;
#75 = LOCAL_TIME ( 13, 59, 21.00000000000000000, #122 ) ;
#76 = CALENDAR_DATE ( 2021, 6, 12 ) ;
#77 = DATE_AND_TIME ( #32, #94 ) ;
#78 = AXIS2_PLACEMENT_3D ( 'NONE', #128, #79, #127 ) ;
#79 = DIRECTION ( 'NONE',  ( -3.491481338843133355E-15, 1.306289919090510071E-16, -1.000000000000000000 ) ) ;
#80 = PERSON ( 'UNSPECIFIED', 'UNSPECIFIED', 'UNSPECIFIED', ('UNSPECIFIED'), ('UNSPECIFIED'), ('UNSPECIFIED') ) ;
#81 = FACE_OUTER_BOUND ( 'NONE', #102, .T. ) ;
#82 = CC_DESIGN_APPROVAL ( #147, ( #167 ) ) ;
#83 = CYLINDRICAL_SURFACE ( 'NONE', #78, 11.00000000000000000 ) ;
#84 = CARTESIAN_POINT ( 'NONE',  ( 0.0000000000000000000, 50.00000000000000000, 0.0000000000000000000 ) ) ;
#85 =( NAMED_UNIT ( * ) PLANE_ANGLE_UNIT ( ) SI_UNIT ( $, .RADIAN. ) );
#86 = FACE_OUTER_BOUND ( 'NONE', #65, .T. ) ;
#87 = DIRECTION ( 'NONE',  ( 4.902367131167509524E-31, 1.000000000000000000, 1.379893674072460211E-16 ) ) ;
#88 = DATE_AND_TIME ( #76, #75 ) ;
#89 = CIRCLE ( 'NONE', #45, 11.00000000000000000 ) ;
#90 = PERSON_AND_ORGANIZATION_ROLE ( 'creator' ) ;
#91 = CIRCLE ( 'NONE', #143, 11.00000000000000000 ) ;
#92 = EDGE_LOOP ( 'NONE', ( #137 ) ) ;
#93 = APPLICATION_PROTOCOL_DEFINITION ( 'international standard', 'config_control_design', 1994, #41 ) ;
#94 = LOCAL_TIME ( 13, 59, 21.00000000000000000, #43 ) ;
#95 = DATE_AND_TIME ( #134, #133 ) ;
#96 = PERSON_AND_ORGANIZATION ( #80, #108 ) ;
#97 = PERSON_AND_ORGANIZATION_ROLE ( 'classification_officer' ) ;
#98 = EDGE_CURVE ( 'NONE', #106, #106, #89, .T. ) ;
#99 = ORIENTED_EDGE ( 'NONE', *, *, #136, .F. ) ;
#100 = ADVANCED_BREP_SHAPE_REPRESENTATION ( '36363', ( #123, #70 ), #39 ) ;
#101 = LOCAL_TIME ( 13, 59, 21.00000000000000000, #141 ) ;
#102 = EDGE_LOOP ( 'NONE', ( #22 ) ) ;
#103 = EDGE_LOOP ( 'NONE', ( #52 ) ) ;
#104 = AXIS2_PLACEMENT_3D ( 'NONE', #8, #34, #112 ) ;
#105 = PERSON_AND_ORGANIZATION_ROLE ( 'design_owner' ) ;
#106 = VERTEX_POINT ( 'NONE', #116 ) ;
#107 = CARTESIAN_POINT ( 'NONE',  ( -5.016975563185763784E-30, 1.877032687989240265E-31, -1.436918910999561004E-15 ) ) ;
#108 = ORGANIZATION ( 'UNSPECIFIED', 'UNSPECIFIED', '' ) ;
#109 = APPROVAL_STATUS ( 'not_yet_approved' ) ;
#110 = PERSON_AND_ORGANIZATION ( #80, #108 ) ;
#111 = DATE_AND_TIME ( #61, #126 ) ;
#112 = DIRECTION ( 'NONE',  ( 4.560886875623422338E-31, 1.000000000000000000, 1.306289919090510071E-16 ) ) ;
#113 = CC_DESIGN_PERSON_AND_ORGANIZATION_ASSIGNMENT ( #117, #105, ( #120 ) ) ;
#114 = DIRECTION ( 'NONE',  ( 1.000000000000000000, 0.0000000000000000000, 0.0000000000000000000 ) ) ;
#115 = PRODUCT_DEFINITION ( 'UNKNOWN', '', #62, #46 ) ;
#116 = CARTESIAN_POINT ( 'NONE',  ( 5.237222008264700033E-15, 11.00000000000000000, 1.500000000000000000 ) ) ;
#117 = PERSON_AND_ORGANIZATION ( #80, #108 ) ;
#118 = CARTESIAN_POINT ( 'NONE',  ( 5.237222008264691355E-15, 11.00000000000000000, 1.499999999999997335 ) ) ;
#119 = PLANE ( 'NONE',  #56 ) ;
#120 = PRODUCT ( '36363', '36363', '', ( #54 ) ) ;
#121 = APPROVAL ( #109, 'UNSPECIFIED' ) ;
#122 = COORDINATED_UNIVERSAL_TIME_OFFSET ( 1, 0, .AHEAD. ) ;
#123 = MANIFOLD_SOLID_BREP ( 'Corps-Déplacer/Copier1', #33 ) ;
#124 = CIRCLE ( 'NONE', #139, 50.00000000000000000 ) ;
#125 = PERSON_AND_ORGANIZATION ( #80, #108 ) ;
#126 = LOCAL_TIME ( 13, 59, 21.00000000000000000, #44 ) ;
#127 = DIRECTION ( 'NONE',  ( 4.560886875623421463E-31, 1.000000000000000000, 1.306289919090510071E-16 ) ) ;
#128 = CARTESIAN_POINT ( 'NONE',  ( 0.0000000000000000000, 0.0000000000000000000, 0.0000000000000000000 ) ) ;
#129 = PLANE ( 'NONE',  #59 ) ;
#130 = DIRECTION ( 'NONE',  ( 0.0000000000000000000, 0.0000000000000000000, 1.000000000000000000 ) ) ;
#131 = DATE_TIME_ROLE ( 'creation_date' ) ;
#132 =( LENGTH_UNIT ( ) NAMED_UNIT ( * ) SI_UNIT ( .MILLI., .METRE. ) );
#133 = LOCAL_TIME ( 13, 59, 21.00000000000000000, #40 ) ;
#134 = CALENDAR_DATE ( 2021, 6, 12 ) ;
#135 = APPROVAL_ROLE ( '' ) ;
#136 = EDGE_CURVE ( 'NONE', #53, #53, #124, .T. ) ;
#137 = ORIENTED_EDGE ( 'NONE', *, *, #49, .F. ) ;
#138 = ORIENTED_EDGE ( 'NONE', *, *, #98, .T. ) ;
#139 = AXIS2_PLACEMENT_3D ( 'NONE', #71, #159, #10 ) ;
#140 = EDGE_LOOP ( 'NONE', ( #138 ) ) ;
#141 = COORDINATED_UNIVERSAL_TIME_OFFSET ( 1, 0, .AHEAD. ) ;
#142 = APPROVAL_PERSON_ORGANIZATION ( #69, #121, #58 ) ;
#143 = AXIS2_PLACEMENT_3D ( 'NONE', #107, #169, #168 ) ;
#144 = FACE_BOUND ( 'NONE', #140, .T. ) ;
#145 = APPROVAL_DATE_TIME ( #95, #51 ) ;
#146 = APPROVAL_ROLE ( '' ) ;
#147 = APPROVAL ( #150, 'UNSPECIFIED' ) ;
#148 = DATE_TIME_ROLE ( 'classification_date' ) ;
#149 = CC_DESIGN_APPROVAL ( #51, ( #115 ) ) ;
#150 = APPROVAL_STATUS ( 'not_yet_approved' ) ;
#151 = PERSON_AND_ORGANIZATION_ROLE ( 'design_supplier' ) ;
#152 = ORIENTED_EDGE ( 'NONE', *, *, #98, .F. ) ;
#153 = ORIENTED_EDGE ( 'NONE', *, *, #160, .T. ) ;
#154 = AXIS2_PLACEMENT_3D ( 'NONE', #47, #165, #21 ) ;
#155 = DIRECTION ( 'NONE',  ( 4.560886875623422338E-31, 1.000000000000000000, 1.306289919090510071E-16 ) ) ;
#156 = PERSON_AND_ORGANIZATION ( #80, #108 ) ;
#157 = VERTEX_POINT ( 'NONE', #30 ) ;
#158 = DIRECTION ( 'NONE',  ( -4.560886875623422338E-31, -1.000000000000000000, -1.306289919090510071E-16 ) ) ;
#159 = DIRECTION ( 'NONE',  ( -3.491481338843133355E-15, 1.306289919090510071E-16, -1.000000000000000000 ) ) ;
#160 = EDGE_CURVE ( 'NONE', #157, #157, #91, .T. ) ;
#161 = APPROVAL_DATE_TIME ( #88, #121 ) ;
#162 = FACE_BOUND ( 'NONE', #48, .T. ) ;
#163 = CC_DESIGN_APPROVAL ( #121, ( #62 ) ) ;
#164 = FACE_OUTER_BOUND ( 'NONE', #92, .T. ) ;
#165 = DIRECTION ( 'NONE',  ( -3.491481338843133355E-15, 1.306289919090510071E-16, -1.000000000000000000 ) ) ;
#166 = ADVANCED_FACE ( 'NONE', ( #144, #86 ), #119, .T. ) ;
#167 = SECURITY_CLASSIFICATION ( '', '', #3 ) ;
#168 = DIRECTION ( 'NONE',  ( 4.560886875623421463E-31, 1.000000000000000000, 1.306289919090510071E-16 ) ) ;
#169 = DIRECTION ( 'NONE',  ( -3.491481338843133355E-15, 1.306289919090510071E-16, -1.000000000000000000 ) ) ;
ENDSEC;
END-ISO-10303-21;
