ISO-10303-21;
HEADER;
FILE_DESCRIPTION (( 'STEP AP203' ),
    '1' );
FILE_NAME ('36360.step',
    '2021-10-07T13:46:36',
    ( '' ),
    ( '' ),
    'SwSTEP 2.0',
    'SolidWorks 2019',
    '' );
FILE_SCHEMA (( 'CONFIG_CONTROL_DESIGN' ));
ENDSEC;

DATA;
#1 = EDGE_CURVE ( 'NONE', #43, #43, #133, .T. ) ;
#2 = CARTESIAN_POINT ( 'NONE',  ( 0.0000000000000000000, 0.0000000000000000000, 0.0000000000000000000 ) ) ;
#3 = COORDINATED_UNIVERSAL_TIME_OFFSET ( 1, 0, .AHEAD. ) ;
#4 = DESIGN_CONTEXT ( 'detailed design', #8, 'design' ) ;
#5 = PERSON_AND_ORGANIZATION ( #184, #81 ) ;
#6 = ORIENTED_EDGE ( 'NONE', *, *, #40, .F. ) ;
#7 = CONICAL_SURFACE ( 'NONE', #93, 0.7499999999999973355, 0.5235987755982927094 ) ;
#8 = APPLICATION_CONTEXT ( 'configuration controlled 3d designs of mechanical parts and assemblies' ) ;
#9 = ADVANCED_FACE ( 'NONE', ( #191, #106 ), #7, .T. ) ;
#10 = DIRECTION ( 'NONE',  ( 0.0000000000000000000, 1.000000000000000000, 0.0000000000000000000 ) ) ;
#11 = AXIS2_PLACEMENT_3D ( 'NONE', #205, #14, #201 ) ;
#12 = APPROVAL ( #34, 'UNSPECIFIED' ) ;
#13 = SECURITY_CLASSIFICATION ( '', '', #33 ) ;
#14 = DIRECTION ( 'NONE',  ( 3.491481338843133355E-15, -1.224646799147353207E-16, 1.000000000000000000 ) ) ;
#15 = CARTESIAN_POINT ( 'NONE',  ( 2.478951750578624367E-14, 0.4599999999999981881, 7.099999999999999645 ) ) ;
#16 = AXIS2_PLACEMENT_3D ( 'NONE', #120, #188, #159 ) ;
#17 = APPROVAL_PERSON_ORGANIZATION ( #181, #221, #167 ) ;
#18 = APPROVAL_STATUS ( 'not_yet_approved' ) ;
#19 = EDGE_LOOP ( 'NONE', ( #35 ) ) ;
#20 = PERSON_AND_ORGANIZATION ( #184, #81 ) ;
#21 = ADVANCED_FACE ( 'NONE', ( #96 ), #58, .F. ) ;
#22 = APPROVAL_DATE_TIME ( #179, #221 ) ;
#23 = CIRCLE ( 'NONE', #16, 0.7499999999999998890 ) ;
#24 = AXIS2_PLACEMENT_3D ( 'NONE', #87, #83, #222 ) ;
#25 = CARTESIAN_POINT ( 'NONE',  ( 2.478951750578624367E-14, -8.694992273946207746E-16, 7.099999999999999645 ) ) ;
#26 = ADVANCED_FACE ( 'NONE', ( #217, #80 ), #54, .T. ) ;
#27 = CARTESIAN_POINT ( 'NONE',  ( 9.650310737470171478E-16, 0.4599999999999976330, 0.2763958847526793439 ) ) ;
#28 = UNCERTAINTY_MEASURE_WITH_UNIT (LENGTH_MEASURE( 1.000000000000000082E-05 ), #101, 'distance_accuracy_value', 'NONE');
#29 = CC_DESIGN_DATE_AND_TIME_ASSIGNMENT ( #124, #66, ( #150 ) ) ;
#30 = PERSON_AND_ORGANIZATION ( #184, #81 ) ;
#31 = ORIENTED_EDGE ( 'NONE', *, *, #114, .T. ) ;
#32 = AXIS2_PLACEMENT_3D ( 'NONE', #25, #95, #77 ) ;
#33 = SECURITY_CLASSIFICATION_LEVEL ( 'unclassified' ) ;
#34 = APPROVAL_STATUS ( 'not_yet_approved' ) ;
#35 = ORIENTED_EDGE ( 'NONE', *, *, #204, .F. ) ;
#36 = CARTESIAN_POINT ( 'NONE',  ( 2.654327019682718671E-14, -9.310125912406658456E-16, 7.602294734194978254 ) ) ;
#37 = FACE_OUTER_BOUND ( 'NONE', #210, .T. ) ;
#38 = DIRECTION ( 'NONE',  ( 3.491481338843133355E-15, -1.224646799147353207E-16, 1.000000000000000000 ) ) ;
#39 = CIRCLE ( 'NONE', #157, 0.7499999999999973355 ) ;
#40 = EDGE_CURVE ( 'NONE', #60, #60, #39, .T. ) ;
#41 = LOCAL_TIME ( 15, 46, 36.00000000000000000, #91 ) ;
#42 = DIRECTION ( 'NONE',  ( 0.0000000000000000000, 1.000000000000000000, 0.0000000000000000000 ) ) ;
#43 = VERTEX_POINT ( 'NONE', #223 ) ;
#44 = FACE_OUTER_BOUND ( 'NONE', #153, .T. ) ;
#45 = DATE_AND_TIME ( #105, #104 ) ;
#46 = PERSON_AND_ORGANIZATION_ROLE ( 'design_supplier' ) ;
#47 = ORIENTED_EDGE ( 'NONE', *, *, #76, .F. ) ;
#48 = PERSON_AND_ORGANIZATION ( #184, #81 ) ;
#49 = EDGE_LOOP ( 'NONE', ( #47 ) ) ;
#50 = AXIS2_PLACEMENT_3D ( 'NONE', #65, #102, #186 ) ;
#51 = SHAPE_DEFINITION_REPRESENTATION ( #211, #67 ) ;
#52 = EDGE_LOOP ( 'NONE', ( #68 ) ) ;
#53 = CARTESIAN_POINT ( 'NONE',  ( 2.478951750578624367E-14, 3.449447500122252519E-33, 7.099999999999999645 ) ) ;
#54 = CYLINDRICAL_SURFACE ( 'NONE', #122, 0.7499999999999985567 ) ;
#55 = MANIFOLD_SOLID_BREP ( 'Corps-Déplacer/Copier1[1]', #88 ) ;
#56 = DIRECTION ( 'NONE',  ( 3.491481338843133355E-15, -1.224646799147353207E-16, 1.000000000000000000 ) ) ;
#57 = ADVANCED_FACE ( 'NONE', ( #37 ), #79, .T. ) ;
#58 = PLANE ( 'NONE',  #192 ) ;
#59 = CLOSED_SHELL ( 'NONE', ( #178, #171, #57 ) ) ;
#60 = VERTEX_POINT ( 'NONE', #161 ) ;
#61 = CARTESIAN_POINT ( 'NONE',  ( 1.047444401652940007E-13, -3.673940397442059178E-15, 30.00000000000000000 ) ) ;
#62 = VERTEX_POINT ( 'NONE', #27 ) ;
#63 = LOCAL_TIME ( 15, 46, 36.00000000000000000, #177 ) ;
#64 =( NAMED_UNIT ( * ) SI_UNIT ( $, .STERADIAN. ) SOLID_ANGLE_UNIT ( ) );
#65 = CARTESIAN_POINT ( 'NONE',  ( 9.650310737470169506E-16, -3.384873355598694278E-17, 0.2763958847526792884 ) ) ;
#66 = DATE_TIME_ROLE ( 'creation_date' ) ;
#67 = ADVANCED_BREP_SHAPE_REPRESENTATION ( '36360', ( #55, #139, #182 ), #116 ) ;
#68 = ORIENTED_EDGE ( 'NONE', *, *, #204, .T. ) ;
#69 = CALENDAR_DATE ( 2021, 7, 10 ) ;
#70 = EDGE_LOOP ( 'NONE', ( #110 ) ) ;
#71 = DATE_AND_TIME ( #107, #63 ) ;
#72 = ORIENTED_EDGE ( 'NONE', *, *, #76, .T. ) ;
#73 = CC_DESIGN_APPROVAL ( #221, ( #166 ) ) ;
#74 = PERSON_AND_ORGANIZATION ( #184, #81 ) ;
#75 = EDGE_LOOP ( 'NONE', ( #31 ) ) ;
#76 = EDGE_CURVE ( 'NONE', #189, #189, #123, .T. ) ;
#77 = DIRECTION ( 'NONE',  ( 0.0000000000000000000, 1.000000000000000000, 0.0000000000000000000 ) ) ;
#78 = CIRCLE ( 'NONE', #50, 0.4599999999999976885 ) ;
#79 = PLANE ( 'NONE',  #128 ) ;
#80 = FACE_OUTER_BOUND ( 'NONE', #52, .T. ) ;
#81 = ORGANIZATION ( 'UNSPECIFIED', 'UNSPECIFIED', '' ) ;
#82 = APPLICATION_PROTOCOL_DEFINITION ( 'international standard', 'config_control_design', 1994, #172 ) ;
#83 = DIRECTION ( 'NONE',  ( -3.491481338843133355E-15, 1.224646799147353207E-16, -1.000000000000000000 ) ) ;
#84 = CARTESIAN_POINT ( 'NONE',  ( 0.0000000000000000000, 0.0000000000000000000, 0.0000000000000000000 ) ) ;
#85 = PLANE ( 'NONE',  #24 ) ;
#86 = ADVANCED_FACE ( 'NONE', ( #158 ), #85, .F. ) ;
#87 = CARTESIAN_POINT ( 'NONE',  ( 1.047444401652940007E-13, 4.124339402320052999E-33, 30.00000000000000000 ) ) ;
#88 = CLOSED_SHELL ( 'NONE', ( #21, #9, #26, #92, #86 ) ) ;
#89 = APPROVAL_ROLE ( '' ) ;
#90 = APPROVAL_DATE_TIME ( #196, #12 ) ;
#91 = COORDINATED_UNIVERSAL_TIME_OFFSET ( 1, 0, .AHEAD. ) ;
#92 = ADVANCED_FACE ( 'NONE', ( #206, #142 ), #185, .T. ) ;
#93 = AXIS2_PLACEMENT_3D ( 'NONE', #97, #38, #156 ) ;
#94 = PRODUCT ( '36360', '36360', '', ( #195 ) ) ;
#95 = DIRECTION ( 'NONE',  ( -3.491481338843133355E-15, 1.224646799147353207E-16, -1.000000000000000000 ) ) ;
#96 = FACE_OUTER_BOUND ( 'NONE', #168, .T. ) ;
#97 = CARTESIAN_POINT ( 'NONE',  ( 2.654327019682718671E-14, -9.310125912406658456E-16, 7.602294734194978254 ) ) ;
#98 = CC_DESIGN_PERSON_AND_ORGANIZATION_ASSIGNMENT ( #30, #144, ( #13 ) ) ;
#99 = AXIS2_PLACEMENT_3D ( 'NONE', #2, #121, #143 ) ;
#100 = LOCAL_TIME ( 15, 46, 36.00000000000000000, #127 ) ;
#101 =( LENGTH_UNIT ( ) NAMED_UNIT ( * ) SI_UNIT ( .MILLI., .METRE. ) );
#102 = DIRECTION ( 'NONE',  ( -3.491481338843133355E-15, 1.224646799147353207E-16, -1.000000000000000000 ) ) ;
#103 = VERTEX_POINT ( 'NONE', #190 ) ;
#104 = LOCAL_TIME ( 15, 46, 36.00000000000000000, #208 ) ;
#105 = CALENDAR_DATE ( 2021, 7, 10 ) ;
#106 = FACE_OUTER_BOUND ( 'NONE', #126, .T. ) ;
#107 = CALENDAR_DATE ( 2021, 7, 10 ) ;
#108 = CONICAL_SURFACE ( 'NONE', #11, 0.4599999999999976885, 1.029744258676649871 ) ;
#109 = PERSON_AND_ORGANIZATION_ROLE ( 'design_owner' ) ;
#110 = ORIENTED_EDGE ( 'NONE', *, *, #173, .T. ) ;
#111 = ORIENTED_EDGE ( 'NONE', *, *, #1, .F. ) ;
#112 = ORIENTED_EDGE ( 'NONE', *, *, #1, .T. ) ;
#113 = LOCAL_TIME ( 15, 46, 36.00000000000000000, #3 ) ;
#114 = EDGE_CURVE ( 'NONE', #62, #62, #78, .T. ) ;
#115 = CARTESIAN_POINT ( 'NONE',  ( 0.0000000000000000000, 0.0000000000000000000, 0.0000000000000000000 ) ) ;
#116 =( GEOMETRIC_REPRESENTATION_CONTEXT ( 3 ) GLOBAL_UNCERTAINTY_ASSIGNED_CONTEXT ( ( #28 ) ) GLOBAL_UNIT_ASSIGNED_CONTEXT ( ( #101, #193, #64 ) ) REPRESENTATION_CONTEXT ( 'NONE', 'WORKASPACE' ) );
#117 = CARTESIAN_POINT ( 'NONE',  ( 1.040461438975253740E-13, 0.7499999999999962252, 29.80000000000000071 ) ) ;
#118 = APPROVAL ( #18, 'UNSPECIFIED' ) ;
#119 = DIRECTION ( 'NONE',  ( 0.0000000000000000000, 1.000000000000000000, 0.0000000000000000000 ) ) ;
#120 = CARTESIAN_POINT ( 'NONE',  ( 1.040461438975253740E-13, -3.649447461459112464E-15, 29.80000000000000071 ) ) ;
#121 = DIRECTION ( 'NONE',  ( -3.491481338843133355E-15, 1.224646799147353207E-16, -1.000000000000000000 ) ) ;
#122 = AXIS2_PLACEMENT_3D ( 'NONE', #115, #155, #134 ) ;
#123 = CIRCLE ( 'NONE', #160, 0.4599999999999990208 ) ;
#124 = DATE_AND_TIME ( #164, #100 ) ;
#125 = APPLICATION_PROTOCOL_DEFINITION ( 'international standard', 'config_control_design', 1994, #8 ) ;
#126 = EDGE_LOOP ( 'NONE', ( #180 ) ) ;
#127 = COORDINATED_UNIVERSAL_TIME_OFFSET ( 1, 0, .AHEAD. ) ;
#128 = AXIS2_PLACEMENT_3D ( 'NONE', #154, #56, #135 ) ;
#129 = CC_DESIGN_PERSON_AND_ORGANIZATION_ASSIGNMENT ( #48, #109, ( #94 ) ) ;
#130 = ORIENTED_EDGE ( 'NONE', *, *, #173, .F. ) ;
#131 = DIRECTION ( 'NONE',  ( 3.491481338843133355E-15, -1.224646799147353207E-16, 1.000000000000000000 ) ) ;
#132 = CC_DESIGN_PERSON_AND_ORGANIZATION_ASSIGNMENT ( #74, #194, ( #166 ) ) ;
#133 = CIRCLE ( 'NONE', #32, 0.4599999999999990208 ) ;
#134 = DIRECTION ( 'NONE',  ( 4.275831445896959482E-31, 1.000000000000000000, 1.224646799147353454E-16 ) ) ;
#135 = DIRECTION ( 'NONE',  ( -4.275831445896958607E-31, -1.000000000000000000, -1.224646799147353207E-16 ) ) ;
#136 = CC_DESIGN_APPROVAL ( #118, ( #13 ) ) ;
#137 = DIRECTION ( 'NONE',  ( -3.491481338843133355E-15, 1.224646799147353207E-16, -1.000000000000000000 ) ) ;
#138 = DIRECTION ( 'NONE',  ( -3.491481338843133355E-15, 1.224646799147353207E-16, -1.000000000000000000 ) ) ;
#139 = MANIFOLD_SOLID_BREP ( 'Corps-Déplacer/Copier1[2]', #59 ) ;
#140 = CC_DESIGN_PERSON_AND_ORGANIZATION_ASSIGNMENT ( #5, #46, ( #166 ) ) ;
#141 = CYLINDRICAL_SURFACE ( 'NONE', #99, 0.4599999999999984102 ) ;
#142 = FACE_BOUND ( 'NONE', #70, .T. ) ;
#143 = DIRECTION ( 'NONE',  ( 4.275831445896958607E-31, 1.000000000000000000, 1.224646799147353207E-16 ) ) ;
#144 = PERSON_AND_ORGANIZATION_ROLE ( 'classification_officer' ) ;
#145 = CC_DESIGN_SECURITY_CLASSIFICATION ( #13, ( #166 ) ) ;
#146 = APPROVAL_ROLE ( '' ) ;
#147 = EDGE_LOOP ( 'NONE', ( #130 ) ) ;
#148 = PERSON_AND_ORGANIZATION_ROLE ( 'creator' ) ;
#149 = ORIENTED_EDGE ( 'NONE', *, *, #114, .F. ) ;
#150 = PRODUCT_DEFINITION ( 'UNKNOWN', '', #166, #4 ) ;
#151 = APPROVAL_DATE_TIME ( #45, #118 ) ;
#152 = CC_DESIGN_APPROVAL ( #12, ( #150 ) ) ;
#153 = EDGE_LOOP ( 'NONE', ( #112 ) ) ;
#154 = CARTESIAN_POINT ( 'NONE',  ( 2.478951750578624367E-14, 3.449447500122252519E-33, 7.099999999999999645 ) ) ;
#155 = DIRECTION ( 'NONE',  ( -3.491481338843133355E-15, 1.224646799147353207E-16, -1.000000000000000000 ) ) ;
#156 = DIRECTION ( 'NONE',  ( 0.0000000000000000000, -1.000000000000000000, 0.0000000000000000000 ) ) ;
#157 = AXIS2_PLACEMENT_3D ( 'NONE', #36, #170, #10 ) ;
#158 = FACE_OUTER_BOUND ( 'NONE', #147, .T. ) ;
#159 = DIRECTION ( 'NONE',  ( 0.0000000000000000000, 1.000000000000000000, 0.0000000000000000000 ) ) ;
#160 = AXIS2_PLACEMENT_3D ( 'NONE', #199, #138, #175 ) ;
#161 = CARTESIAN_POINT ( 'NONE',  ( 2.654327019682718671E-14, 0.7499999999999963363, 7.602294734194978254 ) ) ;
#162 = FACE_OUTER_BOUND ( 'NONE', #183, .T. ) ;
#163 = PRODUCT_RELATED_PRODUCT_CATEGORY ( 'detail', '', ( #94 ) ) ;
#164 = CALENDAR_DATE ( 2021, 7, 10 ) ;
#165 = PERSON_AND_ORGANIZATION ( #184, #81 ) ;
#166 = PRODUCT_DEFINITION_FORMATION_WITH_SPECIFIED_SOURCE ( 'ANY', '', #94, .NOT_KNOWN. ) ;
#167 = APPROVAL_ROLE ( '' ) ;
#168 = EDGE_LOOP ( 'NONE', ( #72 ) ) ;
#169 = DIRECTION ( 'NONE',  ( -4.275831445896958607E-31, -1.000000000000000000, -1.224646799147353207E-16 ) ) ;
#170 = DIRECTION ( 'NONE',  ( -3.491481338843133355E-15, 1.224646799147353207E-16, -1.000000000000000000 ) ) ;
#171 = ADVANCED_FACE ( 'NONE', ( #162, #44 ), #141, .T. ) ;
#172 = APPLICATION_CONTEXT ( 'configuration controlled 3d designs of mechanical parts and assemblies' ) ;
#173 = EDGE_CURVE ( 'NONE', #103, #103, #200, .T. ) ;
#174 = CARTESIAN_POINT ( 'NONE',  ( 1.047444401652940007E-13, -3.673940397442059178E-15, 30.00000000000000000 ) ) ;
#175 = DIRECTION ( 'NONE',  ( 0.0000000000000000000, 1.000000000000000000, 0.0000000000000000000 ) ) ;
#176 = VERTEX_POINT ( 'NONE', #117 ) ;
#177 = COORDINATED_UNIVERSAL_TIME_OFFSET ( 1, 0, .AHEAD. ) ;
#178 = ADVANCED_FACE ( 'NONE', ( #220 ), #108, .T. ) ;
#179 = DATE_AND_TIME ( #69, #41 ) ;
#180 = ORIENTED_EDGE ( 'NONE', *, *, #40, .T. ) ;
#181 = PERSON_AND_ORGANIZATION ( #184, #81 ) ;
#182 = AXIS2_PLACEMENT_3D ( 'NONE', #84, #203, #212 ) ;
#183 = EDGE_LOOP ( 'NONE', ( #149 ) ) ;
#184 = PERSON ( 'UNSPECIFIED', 'UNSPECIFIED', 'UNSPECIFIED', ('UNSPECIFIED'), ('UNSPECIFIED'), ('UNSPECIFIED') ) ;
#185 = CONICAL_SURFACE ( 'NONE', #187, 0.5500000000000000444, 0.7853981633974510546 ) ;
#186 = DIRECTION ( 'NONE',  ( 4.186804226928794842E-31, 1.000000000000000000, 1.178480622266858626E-16 ) ) ;
#187 = AXIS2_PLACEMENT_3D ( 'NONE', #174, #137, #42 ) ;
#188 = DIRECTION ( 'NONE',  ( -3.491481338843133355E-15, 1.224646799147353207E-16, -1.000000000000000000 ) ) ;
#189 = VERTEX_POINT ( 'NONE', #15 ) ;
#190 = CARTESIAN_POINT ( 'NONE',  ( 1.047444401652940007E-13, 0.5499999999999963807, 30.00000000000000000 ) ) ;
#191 = FACE_BOUND ( 'NONE', #49, .T. ) ;
#192 = AXIS2_PLACEMENT_3D ( 'NONE', #53, #131, #169 ) ;
#193 =( NAMED_UNIT ( * ) PLANE_ANGLE_UNIT ( ) SI_UNIT ( $, .RADIAN. ) );
#194 = PERSON_AND_ORGANIZATION_ROLE ( 'creator' ) ;
#195 = MECHANICAL_CONTEXT ( 'NONE', #172, 'mechanical' ) ;
#196 = DATE_AND_TIME ( #213, #113 ) ;
#197 = APPROVAL_PERSON_ORGANIZATION ( #165, #118, #89 ) ;
#198 = PERSON_AND_ORGANIZATION ( #184, #81 ) ;
#199 = CARTESIAN_POINT ( 'NONE',  ( 2.478951750578624367E-14, -8.694992273946207746E-16, 7.099999999999999645 ) ) ;
#200 = CIRCLE ( 'NONE', #218, 0.5500000000000000444 ) ;
#201 = DIRECTION ( 'NONE',  ( -4.186804226928794842E-31, -1.000000000000000000, -1.178480622266858626E-16 ) ) ;
#202 = DIRECTION ( 'NONE',  ( -3.491481338843133355E-15, 1.224646799147353207E-16, -1.000000000000000000 ) ) ;
#203 = DIRECTION ( 'NONE',  ( 0.0000000000000000000, 0.0000000000000000000, 1.000000000000000000 ) ) ;
#204 = EDGE_CURVE ( 'NONE', #176, #176, #23, .T. ) ;
#205 = CARTESIAN_POINT ( 'NONE',  ( 9.650310737470169506E-16, -3.384873355598694278E-17, 0.2763958847526792884 ) ) ;
#206 = FACE_OUTER_BOUND ( 'NONE', #19, .T. ) ;
#207 = APPROVAL_PERSON_ORGANIZATION ( #20, #12, #146 ) ;
#208 = COORDINATED_UNIVERSAL_TIME_OFFSET ( 1, 0, .AHEAD. ) ;
#209 = APPROVAL_STATUS ( 'not_yet_approved' ) ;
#210 = EDGE_LOOP ( 'NONE', ( #111 ) ) ;
#211 = PRODUCT_DEFINITION_SHAPE ( 'NONE', 'NONE',  #150 ) ;
#212 = DIRECTION ( 'NONE',  ( 1.000000000000000000, 0.0000000000000000000, 0.0000000000000000000 ) ) ;
#213 = CALENDAR_DATE ( 2021, 7, 10 ) ;
#214 = EDGE_LOOP ( 'NONE', ( #6 ) ) ;
#215 = DATE_TIME_ROLE ( 'classification_date' ) ;
#216 = CC_DESIGN_DATE_AND_TIME_ASSIGNMENT ( #71, #215, ( #13 ) ) ;
#217 = FACE_OUTER_BOUND ( 'NONE', #214, .T. ) ;
#218 = AXIS2_PLACEMENT_3D ( 'NONE', #61, #202, #119 ) ;
#219 = CC_DESIGN_PERSON_AND_ORGANIZATION_ASSIGNMENT ( #198, #148, ( #150 ) ) ;
#220 = FACE_OUTER_BOUND ( 'NONE', #75, .T. ) ;
#221 = APPROVAL ( #209, 'UNSPECIFIED' ) ;
#222 = DIRECTION ( 'NONE',  ( 4.275831445896958607E-31, 1.000000000000000000, 1.224646799147353207E-16 ) ) ;
#223 = CARTESIAN_POINT ( 'NONE',  ( 2.478951750578624367E-14, 0.4599999999999981881, 7.099999999999999645 ) ) ;
ENDSEC;
END-ISO-10303-21;
