ISO-10303-21;
HEADER;
FILE_DESCRIPTION (( 'STEP AP203' ),
    '1' );
FILE_NAME ('36336.step',
    '2021-12-06T12:59:20',
    ( '' ),
    ( '' ),
    'SwSTEP 2.0',
    'SolidWorks 2019',
    '' );
FILE_SCHEMA (( 'CONFIG_CONTROL_DESIGN' ));
ENDSEC;

DATA;
#1 = AXIS2_PLACEMENT_3D ( 'NONE', #81, #15, #66 ) ;
#2 = CC_DESIGN_APPROVAL ( #17, ( #107 ) ) ;
#3 = PERSON_AND_ORGANIZATION_ROLE ( 'creator' ) ;
#4 = EDGE_LOOP ( 'NONE', ( #140 ) ) ;
#5 = FACE_BOUND ( 'NONE', #111, .T. ) ;
#6 = CARTESIAN_POINT ( 'NONE',  ( -2.470480390962687195E-30, 7.702469994905343100E-32, -7.075737061740262865E-16 ) ) ;
#7 = ADVANCED_BREP_SHAPE_REPRESENTATION ( '36336', ( #9, #29 ), #52 ) ;
#8 = PERSON_AND_ORGANIZATION ( #146, #25 ) ;
#9 = MANIFOLD_SOLID_BREP ( 'Corps-Déplacer/Copier1', #101 ) ;
#10 = CARTESIAN_POINT ( 'NONE',  ( 0.0000000000000000000, 0.0000000000000000000, 0.0000000000000000000 ) ) ;
#11 = PRODUCT_DEFINITION_SHAPE ( 'NONE', 'NONE',  #132 ) ;
#12 = CC_DESIGN_APPROVAL ( #23, ( #71 ) ) ;
#13 = VERTEX_POINT ( 'NONE', #43 ) ;
#14 = CC_DESIGN_PERSON_AND_ORGANIZATION_ASSIGNMENT ( #94, #3, ( #71 ) ) ;
#15 = DIRECTION ( 'NONE',  ( -3.491481338843133355E-15, 1.088574932575425142E-16, -1.000000000000000000 ) ) ;
#16 = PERSON_AND_ORGANIZATION ( #146, #25 ) ;
#17 = APPROVAL ( #150, 'UNSPECIFIED' ) ;
#18 = CALENDAR_DATE ( 2021, 6, 12 ) ;
#19 = LOCAL_TIME ( 13, 59, 20.00000000000000000, #139 ) ;
#20 = SECURITY_CLASSIFICATION_LEVEL ( 'unclassified' ) ;
#21 = CC_DESIGN_PERSON_AND_ORGANIZATION_ASSIGNMENT ( #79, #45, ( #132 ) ) ;
#22 = LOCAL_TIME ( 13, 59, 20.00000000000000000, #156 ) ;
#23 = APPROVAL ( #134, 'UNSPECIFIED' ) ;
#24 = FACE_OUTER_BOUND ( 'NONE', #151, .T. ) ;
#25 = ORGANIZATION ( 'UNSPECIFIED', 'UNSPECIFIED', '' ) ;
#26 = DIRECTION ( 'NONE',  ( 0.0000000000000000000, 0.0000000000000000000, 1.000000000000000000 ) ) ;
#27 = PERSON_AND_ORGANIZATION ( #146, #25 ) ;
#28 = CYLINDRICAL_SURFACE ( 'NONE', #160, 6.499999999999999112 ) ;
#29 = AXIS2_PLACEMENT_3D ( 'NONE', #30, #26, #40 ) ;
#30 = CARTESIAN_POINT ( 'NONE',  ( 0.0000000000000000000, 0.0000000000000000000, 0.0000000000000000000 ) ) ;
#31 = VERTEX_POINT ( 'NONE', #115 ) ;
#32 = DATE_AND_TIME ( #93, #138 ) ;
#33 = CIRCLE ( 'NONE', #96, 25.00000000000000000 ) ;
#34 = PERSON_AND_ORGANIZATION ( #146, #25 ) ;
#35 = EDGE_CURVE ( 'NONE', #31, #31, #105, .T. ) ;
#36 = EDGE_LOOP ( 'NONE', ( #126 ) ) ;
#37 = EDGE_LOOP ( 'NONE', ( #51 ) ) ;
#38 = DIRECTION ( 'NONE',  ( -3.491481338843133355E-15, 1.088574932575425142E-16, -1.000000000000000000 ) ) ;
#39 = CARTESIAN_POINT ( 'NONE',  ( 6.284666409917636095E-15, 6.499999999999999112, 1.799999999999998934 ) ) ;
#40 = DIRECTION ( 'NONE',  ( 1.000000000000000000, 0.0000000000000000000, 0.0000000000000000000 ) ) ;
#41 = DIRECTION ( 'NONE',  ( -3.491481338843133355E-15, 1.088574932575425142E-16, -1.000000000000000000 ) ) ;
#42 = DATE_TIME_ROLE ( 'creation_date' ) ;
#43 = CARTESIAN_POINT ( 'NONE',  ( 6.284666409917639251E-15, 25.00000000000000000, 1.800000000000000044 ) ) ;
#44 = APPROVAL_PERSON_ORGANIZATION ( #8, #162, #104 ) ;
#45 = PERSON_AND_ORGANIZATION_ROLE ( 'creator' ) ;
#46 = PERSON_AND_ORGANIZATION_ROLE ( 'classification_officer' ) ;
#47 = APPROVAL_DATE_TIME ( #32, #23 ) ;
#48 = CC_DESIGN_APPROVAL ( #162, ( #132 ) ) ;
#49 = EDGE_LOOP ( 'NONE', ( #64 ) ) ;
#50 = CC_DESIGN_DATE_AND_TIME_ASSIGNMENT ( #92, #42, ( #132 ) ) ;
#51 = ORIENTED_EDGE ( 'NONE', *, *, #98, .T. ) ;
#52 =( GEOMETRIC_REPRESENTATION_CONTEXT ( 3 ) GLOBAL_UNCERTAINTY_ASSIGNED_CONTEXT ( ( #108 ) ) GLOBAL_UNIT_ASSIGNED_CONTEXT ( ( #69, #112, #145 ) ) REPRESENTATION_CONTEXT ( 'NONE', 'WORKASPACE' ) );
#53 = DIRECTION ( 'NONE',  ( 3.800739063019519199E-31, 1.000000000000000000, 1.088574932575425265E-16 ) ) ;
#54 = FACE_OUTER_BOUND ( 'NONE', #36, .T. ) ;
#55 = CALENDAR_DATE ( 2021, 6, 12 ) ;
#56 = ADVANCED_FACE ( 'NONE', ( #95, #109 ), #86, .T. ) ;
#57 = DIRECTION ( 'NONE',  ( -3.491481338843133355E-15, 1.088574932575425142E-16, -1.000000000000000000 ) ) ;
#58 = SHAPE_DEFINITION_REPRESENTATION ( #11, #7 ) ;
#59 = ADVANCED_FACE ( 'NONE', ( #5, #110 ), #129, .T. ) ;
#60 = ORIENTED_EDGE ( 'NONE', *, *, #35, .F. ) ;
#61 = APPLICATION_CONTEXT ( 'configuration controlled 3d designs of mechanical parts and assemblies' ) ;
#62 = CARTESIAN_POINT ( 'NONE',  ( 6.284666409917637673E-15, -1.959434878635764491E-16, 1.799999999999999378 ) ) ;
#63 = LOCAL_TIME ( 13, 59, 20.00000000000000000, #119 ) ;
#64 = ORIENTED_EDGE ( 'NONE', *, *, #163, .F. ) ;
#65 = CARTESIAN_POINT ( 'NONE',  ( 0.0000000000000000000, 25.00000000000000000, 0.0000000000000000000 ) ) ;
#66 = DIRECTION ( 'NONE',  ( 3.697785493223492838E-31, 1.000000000000000000, 1.127570259384924611E-16 ) ) ;
#67 = FACE_OUTER_BOUND ( 'NONE', #37, .T. ) ;
#68 = EDGE_CURVE ( 'NONE', #135, #135, #33, .T. ) ;
#69 =( LENGTH_UNIT ( ) NAMED_UNIT ( * ) SI_UNIT ( .MILLI., .METRE. ) );
#70 = APPROVAL_ROLE ( '' ) ;
#71 = PRODUCT_DEFINITION_FORMATION_WITH_SPECIFIED_SOURCE ( 'ANY', '', #74, .NOT_KNOWN. ) ;
#72 = DESIGN_CONTEXT ( 'detailed design', #61, 'design' ) ;
#73 = ORIENTED_EDGE ( 'NONE', *, *, #98, .F. ) ;
#74 = PRODUCT ( '36336', '36336', '', ( #131 ) ) ;
#75 = CARTESIAN_POINT ( 'NONE',  ( -3.515683633293055905E-30, 6.500000000000000000, -1.006931812632268351E-15 ) ) ;
#76 = ORIENTED_EDGE ( 'NONE', *, *, #35, .T. ) ;
#77 = AXIS2_PLACEMENT_3D ( 'NONE', #75, #88, #128 ) ;
#78 = DIRECTION ( 'NONE',  ( -3.491481338843133355E-15, 1.088574932575425142E-16, -1.000000000000000000 ) ) ;
#79 = PERSON_AND_ORGANIZATION ( #146, #25 ) ;
#80 = DIRECTION ( 'NONE',  ( 3.800739063019519199E-31, 1.000000000000000000, 1.088574932575425018E-16 ) ) ;
#81 = CARTESIAN_POINT ( 'NONE',  ( 6.284666409917629784E-15, -1.959434878635762025E-16, 1.799999999999997158 ) ) ;
#82 = CC_DESIGN_DATE_AND_TIME_ASSIGNMENT ( #158, #148, ( #107 ) ) ;
#83 = APPROVAL_PERSON_ORGANIZATION ( #16, #17, #70 ) ;
#84 = CALENDAR_DATE ( 2021, 6, 12 ) ;
#85 = LOCAL_TIME ( 13, 59, 20.00000000000000000, #133 ) ;
#86 = PLANE ( 'NONE',  #77 ) ;
#87 = ORIENTED_EDGE ( 'NONE', *, *, #163, .T. ) ;
#88 = DIRECTION ( 'NONE',  ( -3.491481338843133355E-15, 1.088574932575425142E-16, -1.000000000000000000 ) ) ;
#89 = PERSON_AND_ORGANIZATION ( #146, #25 ) ;
#90 = AXIS2_PLACEMENT_3D ( 'NONE', #62, #123, #141 ) ;
#91 = APPROVAL_DATE_TIME ( #102, #162 ) ;
#92 = DATE_AND_TIME ( #155, #85 ) ;
#93 = CALENDAR_DATE ( 2021, 6, 12 ) ;
#94 = PERSON_AND_ORGANIZATION ( #146, #25 ) ;
#95 = FACE_OUTER_BOUND ( 'NONE', #4, .T. ) ;
#96 = AXIS2_PLACEMENT_3D ( 'NONE', #164, #38, #53 ) ;
#97 = DIRECTION ( 'NONE',  ( 3.491481338843133355E-15, -1.088574932575425142E-16, 1.000000000000000000 ) ) ;
#98 = EDGE_CURVE ( 'NONE', #167, #167, #168, .T. ) ;
#99 = EDGE_LOOP ( 'NONE', ( #73 ) ) ;
#100 = APPLICATION_PROTOCOL_DEFINITION ( 'international standard', 'config_control_design', 1994, #61 ) ;
#101 = CLOSED_SHELL ( 'NONE', ( #56, #116, #59, #166 ) ) ;
#102 = DATE_AND_TIME ( #55, #22 ) ;
#103 = PERSON_AND_ORGANIZATION_ROLE ( 'design_owner' ) ;
#104 = APPROVAL_ROLE ( '' ) ;
#105 = CIRCLE ( 'NONE', #90, 6.499999999999999112 ) ;
#106 = DIRECTION ( 'NONE',  ( 3.800739063019519199E-31, 1.000000000000000000, 1.088574932575425265E-16 ) ) ;
#107 = SECURITY_CLASSIFICATION ( '', '', #20 ) ;
#108 = UNCERTAINTY_MEASURE_WITH_UNIT (LENGTH_MEASURE( 1.000000000000000082E-05 ), #69, 'distance_accuracy_value', 'NONE');
#109 = FACE_BOUND ( 'NONE', #99, .T. ) ;
#110 = FACE_OUTER_BOUND ( 'NONE', #49, .T. ) ;
#111 = EDGE_LOOP ( 'NONE', ( #76 ) ) ;
#112 =( NAMED_UNIT ( * ) PLANE_ANGLE_UNIT ( ) SI_UNIT ( $, .RADIAN. ) );
#113 = FACE_OUTER_BOUND ( 'NONE', #152, .T. ) ;
#114 = CARTESIAN_POINT ( 'NONE',  ( 0.0000000000000000000, 0.0000000000000000000, 0.0000000000000000000 ) ) ;
#115 = CARTESIAN_POINT ( 'NONE',  ( 6.284666409917640040E-15, 6.499999999999999112, 1.800000000000000044 ) ) ;
#116 = ADVANCED_FACE ( 'NONE', ( #24, #54 ), #147, .T. ) ;
#117 = AXIS2_PLACEMENT_3D ( 'NONE', #39, #97, #153 ) ;
#118 = APPROVAL_ROLE ( '' ) ;
#119 = COORDINATED_UNIVERSAL_TIME_OFFSET ( 1, 0, .AHEAD. ) ;
#120 = APPROVAL_DATE_TIME ( #169, #17 ) ;
#121 = APPROVAL_PERSON_ORGANIZATION ( #89, #23, #118 ) ;
#122 = CC_DESIGN_PERSON_AND_ORGANIZATION_ASSIGNMENT ( #137, #159, ( #71 ) ) ;
#123 = DIRECTION ( 'NONE',  ( -3.491481338843133355E-15, 1.088574932575425142E-16, -1.000000000000000000 ) ) ;
#124 = AXIS2_PLACEMENT_3D ( 'NONE', #10, #41, #106 ) ;
#125 = AXIS2_PLACEMENT_3D ( 'NONE', #6, #78, #143 ) ;
#126 = ORIENTED_EDGE ( 'NONE', *, *, #68, .F. ) ;
#127 = PRODUCT_RELATED_PRODUCT_CATEGORY ( 'detail', '', ( #74 ) ) ;
#128 = DIRECTION ( 'NONE',  ( 3.800739063019519199E-31, 1.000000000000000000, 1.088574932575425142E-16 ) ) ;
#129 = PLANE ( 'NONE',  #117 ) ;
#130 = CIRCLE ( 'NONE', #1, 25.00000000000000000 ) ;
#131 = MECHANICAL_CONTEXT ( 'NONE', #144, 'mechanical' ) ;
#132 = PRODUCT_DEFINITION ( 'UNKNOWN', '', #71, #72 ) ;
#133 = COORDINATED_UNIVERSAL_TIME_OFFSET ( 1, 0, .AHEAD. ) ;
#134 = APPROVAL_STATUS ( 'not_yet_approved' ) ;
#135 = VERTEX_POINT ( 'NONE', #65 ) ;
#136 = CARTESIAN_POINT ( 'NONE',  ( 3.421138828918010427E-46, 6.500000000000000000, 0.0000000000000000000 ) ) ;
#137 = PERSON_AND_ORGANIZATION ( #146, #25 ) ;
#138 = LOCAL_TIME ( 13, 59, 20.00000000000000000, #149 ) ;
#139 = COORDINATED_UNIVERSAL_TIME_OFFSET ( 1, 0, .AHEAD. ) ;
#140 = ORIENTED_EDGE ( 'NONE', *, *, #68, .T. ) ;
#141 = DIRECTION ( 'NONE',  ( 3.555562974253359003E-31, 1.000000000000000000, 1.000802005371235004E-16 ) ) ;
#142 = CC_DESIGN_PERSON_AND_ORGANIZATION_ASSIGNMENT ( #27, #103, ( #74 ) ) ;
#143 = DIRECTION ( 'NONE',  ( 3.800739063019519199E-31, 1.000000000000000000, 1.088574932575425018E-16 ) ) ;
#144 = APPLICATION_CONTEXT ( 'configuration controlled 3d designs of mechanical parts and assemblies' ) ;
#145 =( NAMED_UNIT ( * ) SI_UNIT ( $, .STERADIAN. ) SOLID_ANGLE_UNIT ( ) );
#146 = PERSON ( 'UNSPECIFIED', 'UNSPECIFIED', 'UNSPECIFIED', ('UNSPECIFIED'), ('UNSPECIFIED'), ('UNSPECIFIED') ) ;
#147 = CYLINDRICAL_SURFACE ( 'NONE', #124, 25.00000000000000000 ) ;
#148 = DATE_TIME_ROLE ( 'classification_date' ) ;
#149 = COORDINATED_UNIVERSAL_TIME_OFFSET ( 1, 0, .AHEAD. ) ;
#150 = APPROVAL_STATUS ( 'not_yet_approved' ) ;
#151 = EDGE_LOOP ( 'NONE', ( #87 ) ) ;
#152 = EDGE_LOOP ( 'NONE', ( #60 ) ) ;
#153 = DIRECTION ( 'NONE',  ( -3.800739063019519199E-31, -1.000000000000000000, -1.088574932575425142E-16 ) ) ;
#154 = CC_DESIGN_PERSON_AND_ORGANIZATION_ASSIGNMENT ( #34, #46, ( #107 ) ) ;
#155 = CALENDAR_DATE ( 2021, 6, 12 ) ;
#156 = COORDINATED_UNIVERSAL_TIME_OFFSET ( 1, 0, .AHEAD. ) ;
#157 = APPLICATION_PROTOCOL_DEFINITION ( 'international standard', 'config_control_design', 1994, #144 ) ;
#158 = DATE_AND_TIME ( #84, #63 ) ;
#159 = PERSON_AND_ORGANIZATION_ROLE ( 'design_supplier' ) ;
#160 = AXIS2_PLACEMENT_3D ( 'NONE', #114, #57, #80 ) ;
#161 = CC_DESIGN_SECURITY_CLASSIFICATION ( #107, ( #71 ) ) ;
#162 = APPROVAL ( #165, 'UNSPECIFIED' ) ;
#163 = EDGE_CURVE ( 'NONE', #13, #13, #130, .T. ) ;
#164 = CARTESIAN_POINT ( 'NONE',  ( -9.501847657548798305E-30, 2.962488459578978688E-31, -2.721437331438563187E-15 ) ) ;
#165 = APPROVAL_STATUS ( 'not_yet_approved' ) ;
#166 = ADVANCED_FACE ( 'NONE', ( #67, #113 ), #28, .F. ) ;
#167 = VERTEX_POINT ( 'NONE', #136 ) ;
#168 = CIRCLE ( 'NONE', #125, 6.500000000000000000 ) ;
#169 = DATE_AND_TIME ( #18, #19 ) ;
ENDSEC;
END-ISO-10303-21;
