ISO-10303-21;
HEADER;
FILE_DESCRIPTION (( 'STEP AP203' ),
    '1' );
FILE_NAME ('36309.step',
    '2021-11-12T07:08:16',
    ( '' ),
    ( '' ),
    'SwSTEP 2.0',
    'SolidWorks 2019',
    '' );
FILE_SCHEMA (( 'CONFIG_CONTROL_DESIGN' ));
ENDSEC;

DATA;
#1 = FACE_OUTER_BOUND ( 'NONE', #122, .T. ) ;
#2 = ORIENTED_EDGE ( 'NONE', *, *, #223, .F. ) ;
#3 = FACE_OUTER_BOUND ( 'NONE', #20, .T. ) ;
#4 = ADVANCED_FACE ( 'NONE', ( #228 ), #168, .T. ) ;
#5 = DIRECTION ( 'NONE',  ( 3.491481338843133355E-15, -1.223397583181748052E-16, 1.000000000000000000 ) ) ;
#6 = PRODUCT_DEFINITION_FORMATION_WITH_SPECIFIED_SOURCE ( 'ANY', '', #48, .NOT_KNOWN. ) ;
#7 = ADVANCED_BREP_SHAPE_REPRESENTATION ( '36309', ( #22, #98, #130 ), #183 ) ;
#8 = DIRECTION ( 'NONE',  ( -3.491481338843133355E-15, 1.224646799147353207E-16, -1.000000000000000000 ) ) ;
#9 = DIRECTION ( 'NONE',  ( 0.0000000000000000000, -1.000000000000000000, 0.0000000000000000000 ) ) ;
#10 = CIRCLE ( 'NONE', #214, 2.500000000000000000 ) ;
#11 = CALENDAR_DATE ( 2021, 12, 11 ) ;
#12 = PERSON_AND_ORGANIZATION_ROLE ( 'creator' ) ;
#13 = UNCERTAINTY_MEASURE_WITH_UNIT (LENGTH_MEASURE( 1.000000000000000082E-05 ), #42, 'distance_accuracy_value', 'NONE');
#14 = CALENDAR_DATE ( 2021, 12, 11 ) ;
#15 = CARTESIAN_POINT ( 'NONE',  ( 1.745740669421566678E-13, -6.123233995736766085E-15, 50.00000000000000000 ) ) ;
#16 = PERSON_AND_ORGANIZATION_ROLE ( 'creator' ) ;
#17 = ORIENTED_EDGE ( 'NONE', *, *, #103, .T. ) ;
#18 = DIRECTION ( 'NONE',  ( 0.0000000000000000000, 1.000000000000000000, 0.0000000000000000000 ) ) ;
#19 = CC_DESIGN_APPROVAL ( #172, ( #227 ) ) ;
#20 = EDGE_LOOP ( 'NONE', ( #92 ) ) ;
#21 = FACE_OUTER_BOUND ( 'NONE', #180, .T. ) ;
#22 = MANIFOLD_SOLID_BREP ( 'Corps-Déplacer/Copier1[1]', #212 ) ;
#23 = CARTESIAN_POINT ( 'NONE',  ( 1.745740669421566678E-13, 2.399999999999995914, 50.00000000000000000 ) ) ;
#24 = AXIS2_PLACEMENT_3D ( 'NONE', #67, #5, #9 ) ;
#25 = DIRECTION ( 'NONE',  ( -4.275831445896958607E-31, -1.000000000000000000, -1.224646799147353207E-16 ) ) ;
#26 = CARTESIAN_POINT ( 'NONE',  ( 3.491481338843133355E-14, 2.249639673992784496E-32, 10.00000000000000000 ) ) ;
#27 = EDGE_LOOP ( 'NONE', ( #205 ) ) ;
#28 = CARTESIAN_POINT ( 'NONE',  ( 3.491481338843132724E-14, -1.223397583181747953E-15, 9.999999999999998224 ) ) ;
#29 = LOCAL_TIME ( 8, 8, 16.00000000000000000, #57 ) ;
#30 = ORIENTED_EDGE ( 'NONE', *, *, #223, .T. ) ;
#31 = APPROVAL_DATE_TIME ( #111, #154 ) ;
#32 = APPROVAL ( #138, 'UNSPECIFIED' ) ;
#33 = CIRCLE ( 'NONE', #206, 3.000000000000001776 ) ;
#34 = MECHANICAL_CONTEXT ( 'NONE', #134, 'mechanical' ) ;
#35 = APPROVAL_ROLE ( '' ) ;
#36 = ADVANCED_FACE ( 'NONE', ( #153, #3 ), #69, .T. ) ;
#37 = DIRECTION ( 'NONE',  ( 1.000000000000000000, 0.0000000000000000000, -3.491481338843132961E-15 ) ) ;
#38 = ORIENTED_EDGE ( 'NONE', *, *, #157, .T. ) ;
#39 = FACE_OUTER_BOUND ( 'NONE', #182, .T. ) ;
#40 = APPLICATION_PROTOCOL_DEFINITION ( 'international standard', 'config_control_design', 1994, #134 ) ;
#41 = DIRECTION ( 'NONE',  ( 3.491481338843133355E-15, -0.0000000000000000000, 1.000000000000000000 ) ) ;
#42 =( LENGTH_UNIT ( ) NAMED_UNIT ( * ) SI_UNIT ( .MILLI., .METRE. ) );
#43 = EDGE_LOOP ( 'NONE', ( #30 ) ) ;
#44 = APPROVAL_PERSON_ORGANIZATION ( #155, #32, #123 ) ;
#45 = ADVANCED_FACE ( 'NONE', ( #53 ), #101, .F. ) ;
#46 = EDGE_CURVE ( 'NONE', #215, #215, #243, .T. ) ;
#47 = AXIS2_PLACEMENT_3D ( 'NONE', #61, #142, #217 ) ;
#48 = PRODUCT ( '36309', '36309', '', ( #34 ) ) ;
#49 = EDGE_LOOP ( 'NONE', ( #51 ) ) ;
#50 = ORIENTED_EDGE ( 'NONE', *, *, #87, .T. ) ;
#51 = ORIENTED_EDGE ( 'NONE', *, *, #46, .T. ) ;
#52 = DIRECTION ( 'NONE',  ( -3.491481338843133355E-15, 1.224646799147353207E-16, -1.000000000000000000 ) ) ;
#53 = FACE_OUTER_BOUND ( 'NONE', #27, .T. ) ;
#54 = CONICAL_SURFACE ( 'NONE', #161, 3.000000000000001776, 0.7853981633974453924 ) ;
#55 = CC_DESIGN_PERSON_AND_ORGANIZATION_ASSIGNMENT ( #127, #12, ( #6 ) ) ;
#56 = APPROVAL_STATUS ( 'not_yet_approved' ) ;
#57 = COORDINATED_UNIVERSAL_TIME_OFFSET ( 1, 0, .AHEAD. ) ;
#58 = APPROVAL_STATUS ( 'not_yet_approved' ) ;
#59 = DIRECTION ( 'NONE',  ( 1.000000000000000000, 0.0000000000000000000, -3.491130995403324278E-15 ) ) ;
#60 = PERSON_AND_ORGANIZATION_ROLE ( 'classification_officer' ) ;
#61 = CARTESIAN_POINT ( 'NONE',  ( 3.491481338843133355E-16, 0.0000000000000000000, 0.1000000000000000056 ) ) ;
#62 = VERTEX_POINT ( 'NONE', #23 ) ;
#63 = EDGE_CURVE ( 'NONE', #162, #162, #33, .T. ) ;
#64 = APPROVAL_PERSON_ORGANIZATION ( #143, #154, #160 ) ;
#65 = CIRCLE ( 'NONE', #24, 2.500000000000000000 ) ;
#66 = CC_DESIGN_PERSON_AND_ORGANIZATION_ASSIGNMENT ( #237, #89, ( #6 ) ) ;
#67 = CARTESIAN_POINT ( 'NONE',  ( 3.491481338843132724E-14, -1.223397583181747953E-15, 9.999999999999998224 ) ) ;
#68 = CARTESIAN_POINT ( 'NONE',  ( 3.491481338843133355E-14, 2.249639673992784496E-32, 10.00000000000000000 ) ) ;
#69 = CYLINDRICAL_SURFACE ( 'NONE', #229, 3.000000000000000888 ) ;
#70 = DATE_TIME_ROLE ( 'creation_date' ) ;
#71 = APPLICATION_PROTOCOL_DEFINITION ( 'international standard', 'config_control_design', 1994, #220 ) ;
#72 = FACE_BOUND ( 'NONE', #43, .T. ) ;
#73 = APPROVAL_PERSON_ORGANIZATION ( #179, #172, #35 ) ;
#74 = EDGE_LOOP ( 'NONE', ( #80 ) ) ;
#75 = FACE_OUTER_BOUND ( 'NONE', #208, .T. ) ;
#76 = CARTESIAN_POINT ( 'NONE',  ( 2.400000000000000355, 0.0000000000000000000, -8.393107740379588858E-15 ) ) ;
#77 = EDGE_CURVE ( 'NONE', #159, #159, #164, .T. ) ;
#78 = AXIS2_PLACEMENT_3D ( 'NONE', #28, #135, #132 ) ;
#79 = DIRECTION ( 'NONE',  ( -4.328886684428667775E-31, -1.000000000000000000, -1.223397583181748052E-16 ) ) ;
#80 = ORIENTED_EDGE ( 'NONE', *, *, #103, .F. ) ;
#81 = CARTESIAN_POINT ( 'NONE',  ( 1.724791781388508004E-13, -6.049755187787925154E-15, 49.39999999999999858 ) ) ;
#82 = AXIS2_PLACEMENT_3D ( 'NONE', #181, #196, #200 ) ;
#83 = FACE_OUTER_BOUND ( 'NONE', #49, .T. ) ;
#84 = AXIS2_PLACEMENT_3D ( 'NONE', #15, #163, #18 ) ;
#85 = ADVANCED_FACE ( 'NONE', ( #210, #192 ), #106, .T. ) ;
#86 = ORIENTED_EDGE ( 'NONE', *, *, #63, .T. ) ;
#87 = EDGE_CURVE ( 'NONE', #184, #184, #65, .T. ) ;
#88 = SECURITY_CLASSIFICATION_LEVEL ( 'unclassified' ) ;
#89 = PERSON_AND_ORGANIZATION_ROLE ( 'design_supplier' ) ;
#90 = APPROVAL_DATE_TIME ( #140, #172 ) ;
#91 = CARTESIAN_POINT ( 'NONE',  ( 3.491481338843132724E-14, -2.500000000000001332, 9.999999999999998224 ) ) ;
#92 = ORIENTED_EDGE ( 'NONE', *, *, #77, .T. ) ;
#93 = DIRECTION ( 'NONE',  ( 3.491481338843133355E-15, -0.0000000000000000000, 1.000000000000000000 ) ) ;
#94 = SECURITY_CLASSIFICATION ( '', '', #88 ) ;
#95 = CC_DESIGN_PERSON_AND_ORGANIZATION_ASSIGNMENT ( #125, #109, ( #48 ) ) ;
#96 = CARTESIAN_POINT ( 'NONE',  ( 3.491481338843132724E-14, -2.500000000000001332, 9.999999999999998224 ) ) ;
#97 = AXIS2_PLACEMENT_3D ( 'NONE', #232, #8, #190 ) ;
#98 = MANIFOLD_SOLID_BREP ( 'Corps-Déplacer/Copier1[2]', #151 ) ;
#99 = DIRECTION ( 'NONE',  ( -3.491481338843133355E-15, 1.224646799147353207E-16, -1.000000000000000000 ) ) ;
#100 = ADVANCED_FACE ( 'NONE', ( #83 ), #136, .T. ) ;
#101 = PLANE ( 'NONE',  #174 ) ;
#102 = ORIENTED_EDGE ( 'NONE', *, *, #157, .F. ) ;
#103 = EDGE_CURVE ( 'NONE', #242, #242, #108, .T. ) ;
#104 = DIRECTION ( 'NONE',  ( 3.491481338843133355E-15, -1.223397583181748052E-16, 1.000000000000000000 ) ) ;
#105 = LOCAL_TIME ( 8, 8, 16.00000000000000000, #195 ) ;
#106 = CYLINDRICAL_SURFACE ( 'NONE', #118, 2.500000000000000000 ) ;
#107 = COORDINATED_UNIVERSAL_TIME_OFFSET ( 1, 0, .AHEAD. ) ;
#108 = CIRCLE ( 'NONE', #187, 2.400000000000000355 ) ;
#109 = PERSON_AND_ORGANIZATION_ROLE ( 'design_owner' ) ;
#110 = CC_DESIGN_DATE_AND_TIME_ASSIGNMENT ( #139, #199, ( #94 ) ) ;
#111 = DATE_AND_TIME ( #175, #105 ) ;
#112 = DIRECTION ( 'NONE',  ( -3.491481338843133355E-15, 1.224646799147353207E-16, -1.000000000000000000 ) ) ;
#113 = CARTESIAN_POINT ( 'NONE',  ( 1.724791781388508004E-13, -6.049755187787925154E-15, 49.39999999999999858 ) ) ;
#114 = CARTESIAN_POINT ( 'NONE',  ( 4.463468607437975441E-14, 2.999999999999998668, 12.78388218141500943 ) ) ;
#115 = CONICAL_SURFACE ( 'NONE', #47, 2.500000000000000000, 0.7853981633974473908 ) ;
#116 = ORGANIZATION ( 'UNSPECIFIED', 'UNSPECIFIED', '' ) ;
#117 = CC_DESIGN_PERSON_AND_ORGANIZATION_ASSIGNMENT ( #218, #16, ( #227 ) ) ;
#118 = AXIS2_PLACEMENT_3D ( 'NONE', #209, #104, #230 ) ;
#119 = EDGE_LOOP ( 'NONE', ( #86 ) ) ;
#120 = ORIENTED_EDGE ( 'NONE', *, *, #46, .F. ) ;
#121 = EDGE_LOOP ( 'NONE', ( #38 ) ) ;
#122 = EDGE_LOOP ( 'NONE', ( #102 ) ) ;
#123 = APPROVAL_ROLE ( '' ) ;
#124 = AXIS2_PLACEMENT_3D ( 'NONE', #133, #207, #152 ) ;
#125 = PERSON_AND_ORGANIZATION ( #203, #116 ) ;
#126 = CALENDAR_DATE ( 2021, 12, 11 ) ;
#127 = PERSON_AND_ORGANIZATION ( #203, #116 ) ;
#128 = ORIENTED_EDGE ( 'NONE', *, *, #77, .F. ) ;
#129 = DIRECTION ( 'NONE',  ( 3.491481338843133355E-15, -1.223397583181748052E-16, 1.000000000000000000 ) ) ;
#130 = AXIS2_PLACEMENT_3D ( 'NONE', #173, #193, #177 ) ;
#131 = CC_DESIGN_DATE_AND_TIME_ASSIGNMENT ( #235, #70, ( #227 ) ) ;
#132 = DIRECTION ( 'NONE',  ( 0.0000000000000000000, -1.000000000000000000, 0.0000000000000000000 ) ) ;
#133 = CARTESIAN_POINT ( 'NONE',  ( 4.463468607437975441E-14, -2.075302949237393056E-15, 12.78388218141500943 ) ) ;
#134 = APPLICATION_CONTEXT ( 'configuration controlled 3d designs of mechanical parts and assemblies' ) ;
#135 = DIRECTION ( 'NONE',  ( 3.491481338843133355E-15, -1.223397583181748052E-16, 1.000000000000000000 ) ) ;
#136 = PLANE ( 'NONE',  #221 ) ;
#137 = CC_DESIGN_PERSON_AND_ORGANIZATION_ASSIGNMENT ( #233, #60, ( #94 ) ) ;
#138 = APPROVAL_STATUS ( 'not_yet_approved' ) ;
#139 = DATE_AND_TIME ( #14, #148 ) ;
#140 = DATE_AND_TIME ( #194, #29 ) ;
#141 = CC_DESIGN_APPROVAL ( #154, ( #6 ) ) ;
#142 = DIRECTION ( 'NONE',  ( 3.491481338843133355E-15, -0.0000000000000000000, 1.000000000000000000 ) ) ;
#143 = PERSON_AND_ORGANIZATION ( #203, #116 ) ;
#144 = EDGE_LOOP ( 'NONE', ( #2 ) ) ;
#145 = CARTESIAN_POINT ( 'NONE',  ( 1.724791781388508004E-13, 2.999999999999995559, 49.39999999999999858 ) ) ;
#146 = VERTEX_POINT ( 'NONE', #222 ) ;
#147 = ADVANCED_FACE ( 'NONE', ( #241 ), #219, .F. ) ;
#148 = LOCAL_TIME ( 8, 8, 16.00000000000000000, #107 ) ;
#149 = ORIENTED_EDGE ( 'NONE', *, *, #63, .F. ) ;
#150 = DIRECTION ( 'NONE',  ( 0.0000000000000000000, 1.000000000000000000, 0.0000000000000000000 ) ) ;
#151 = CLOSED_SHELL ( 'NONE', ( #85, #100, #165, #4 ) ) ;
#152 = DIRECTION ( 'NONE',  ( 0.0000000000000000000, 1.000000000000000000, 0.0000000000000000000 ) ) ;
#153 = FACE_OUTER_BOUND ( 'NONE', #119, .T. ) ;
#154 = APPROVAL ( #58, 'UNSPECIFIED' ) ;
#155 = PERSON_AND_ORGANIZATION ( #203, #116 ) ;
#156 = DATE_AND_TIME ( #126, #169 ) ;
#157 = EDGE_CURVE ( 'NONE', #146, #146, #10, .T. ) ;
#158 = COORDINATED_UNIVERSAL_TIME_OFFSET ( 1, 0, .AHEAD. ) ;
#159 = VERTEX_POINT ( 'NONE', #114 ) ;
#160 = APPROVAL_ROLE ( '' ) ;
#161 = AXIS2_PLACEMENT_3D ( 'NONE', #113, #112, #198 ) ;
#162 = VERTEX_POINT ( 'NONE', #145 ) ;
#163 = DIRECTION ( 'NONE',  ( -3.491481338843133355E-15, 1.224646799147353207E-16, -1.000000000000000000 ) ) ;
#164 = CIRCLE ( 'NONE', #124, 3.000000000000000888 ) ;
#165 = ADVANCED_FACE ( 'NONE', ( #201, #1 ), #115, .T. ) ;
#166 = CARTESIAN_POINT ( 'NONE',  ( -4.731839565957903391E-32, 0.0000000000000000000, -1.355252715606880543E-17 ) ) ;
#167 = DIRECTION ( 'NONE',  ( -4.275831445896958607E-31, -1.000000000000000000, -1.224646799147353207E-16 ) ) ;
#168 = PLANE ( 'NONE',  #97 ) ;
#169 = LOCAL_TIME ( 8, 8, 16.00000000000000000, #158 ) ;
#170 = DIRECTION ( 'NONE',  ( 3.491481338843133355E-15, -1.224646799147353207E-16, 1.000000000000000000 ) ) ;
#171 = DIRECTION ( 'NONE',  ( 4.275831445896958607E-31, 1.000000000000000000, 1.224646799147353207E-16 ) ) ;
#172 = APPROVAL ( #56, 'UNSPECIFIED' ) ;
#173 = CARTESIAN_POINT ( 'NONE',  ( 0.0000000000000000000, 0.0000000000000000000, 0.0000000000000000000 ) ) ;
#174 = AXIS2_PLACEMENT_3D ( 'NONE', #26, #231, #167 ) ;
#175 = CALENDAR_DATE ( 2021, 12, 11 ) ;
#176 = ADVANCED_FACE ( 'NONE', ( #72, #75 ), #54, .T. ) ;
#177 = DIRECTION ( 'NONE',  ( 1.000000000000000000, 0.0000000000000000000, 0.0000000000000000000 ) ) ;
#178 = CARTESIAN_POINT ( 'NONE',  ( 3.491481338843132724E-14, -1.734723475976807094E-15, 9.999999999999998224 ) ) ;
#179 = PERSON_AND_ORGANIZATION ( #203, #116 ) ;
#180 = EDGE_LOOP ( 'NONE', ( #50 ) ) ;
#181 = CARTESIAN_POINT ( 'NONE',  ( 1.745740669421566678E-13, 1.799711739194221740E-32, 50.00000000000000000 ) ) ;
#182 = EDGE_LOOP ( 'NONE', ( #128 ) ) ;
#183 =( GEOMETRIC_REPRESENTATION_CONTEXT ( 3 ) GLOBAL_UNCERTAINTY_ASSIGNED_CONTEXT ( ( #13 ) ) GLOBAL_UNIT_ASSIGNED_CONTEXT ( ( #42, #186, #224 ) ) REPRESENTATION_CONTEXT ( 'NONE', 'WORKASPACE' ) );
#184 = VERTEX_POINT ( 'NONE', #96 ) ;
#185 = PRODUCT_RELATED_PRODUCT_CATEGORY ( 'detail', '', ( #48 ) ) ;
#186 =( NAMED_UNIT ( * ) PLANE_ANGLE_UNIT ( ) SI_UNIT ( $, .RADIAN. ) );
#187 = AXIS2_PLACEMENT_3D ( 'NONE', #166, #93, #37 ) ;
#188 = CARTESIAN_POINT ( 'NONE',  ( 0.0000000000000000000, 0.0000000000000000000, 0.0000000000000000000 ) ) ;
#189 = EDGE_LOOP ( 'NONE', ( #120 ) ) ;
#190 = DIRECTION ( 'NONE',  ( 4.275831445896958607E-31, 1.000000000000000000, 1.224646799147353207E-16 ) ) ;
#191 = CIRCLE ( 'NONE', #84, 2.400000000000002132 ) ;
#192 = FACE_OUTER_BOUND ( 'NONE', #121, .T. ) ;
#193 = DIRECTION ( 'NONE',  ( 0.0000000000000000000, 0.0000000000000000000, 1.000000000000000000 ) ) ;
#194 = CALENDAR_DATE ( 2021, 12, 11 ) ;
#195 = COORDINATED_UNIVERSAL_TIME_OFFSET ( 1, 0, .AHEAD. ) ;
#196 = DIRECTION ( 'NONE',  ( -3.491481338843133355E-15, 1.224646799147353207E-16, -1.000000000000000000 ) ) ;
#197 = SHAPE_DEFINITION_REPRESENTATION ( #226, #7 ) ;
#198 = DIRECTION ( 'NONE',  ( 0.0000000000000000000, 1.000000000000000000, 0.0000000000000000000 ) ) ;
#199 = DATE_TIME_ROLE ( 'classification_date' ) ;
#200 = DIRECTION ( 'NONE',  ( 4.275831445896958607E-31, 1.000000000000000000, 1.224646799147353207E-16 ) ) ;
#201 = FACE_BOUND ( 'NONE', #240, .T. ) ;
#202 = ADVANCED_FACE ( 'NONE', ( #39, #21 ), #238, .F. ) ;
#203 = PERSON ( 'UNSPECIFIED', 'UNSPECIFIED', 'UNSPECIFIED', ('UNSPECIFIED'), ('UNSPECIFIED'), ('UNSPECIFIED') ) ;
#204 = CC_DESIGN_SECURITY_CLASSIFICATION ( #94, ( #6 ) ) ;
#205 = ORIENTED_EDGE ( 'NONE', *, *, #87, .F. ) ;
#206 = AXIS2_PLACEMENT_3D ( 'NONE', #81, #99, #150 ) ;
#207 = DIRECTION ( 'NONE',  ( 3.491481338843133355E-15, -1.223397583181748052E-16, 1.000000000000000000 ) ) ;
#208 = EDGE_LOOP ( 'NONE', ( #149 ) ) ;
#209 = CARTESIAN_POINT ( 'NONE',  ( 0.0000000000000000000, 0.0000000000000000000, 0.0000000000000000000 ) ) ;
#210 = FACE_OUTER_BOUND ( 'NONE', #189, .T. ) ;
#211 = LOCAL_TIME ( 8, 8, 16.00000000000000000, #216 ) ;
#212 = CLOSED_SHELL ( 'NONE', ( #36, #176, #147, #202, #45 ) ) ;
#213 = APPROVAL_DATE_TIME ( #156, #32 ) ;
#214 = AXIS2_PLACEMENT_3D ( 'NONE', #236, #41, #59 ) ;
#215 = VERTEX_POINT ( 'NONE', #91 ) ;
#216 = COORDINATED_UNIVERSAL_TIME_OFFSET ( 1, 0, .AHEAD. ) ;
#217 = DIRECTION ( 'NONE',  ( 1.000000000000000000, 0.0000000000000000000, -3.491130995403324278E-15 ) ) ;
#218 = PERSON_AND_ORGANIZATION ( #203, #116 ) ;
#219 = PLANE ( 'NONE',  #82 ) ;
#220 = APPLICATION_CONTEXT ( 'configuration controlled 3d designs of mechanical parts and assemblies' ) ;
#221 = AXIS2_PLACEMENT_3D ( 'NONE', #68, #170, #25 ) ;
#222 = CARTESIAN_POINT ( 'NONE',  ( 2.500000000000000444, 0.0000000000000000000, 0.09999999999999127642 ) ) ;
#223 = EDGE_CURVE ( 'NONE', #62, #62, #191, .T. ) ;
#224 =( NAMED_UNIT ( * ) SI_UNIT ( $, .STERADIAN. ) SOLID_ANGLE_UNIT ( ) );
#225 = AXIS2_PLACEMENT_3D ( 'NONE', #178, #129, #79 ) ;
#226 = PRODUCT_DEFINITION_SHAPE ( 'NONE', 'NONE',  #227 ) ;
#227 = PRODUCT_DEFINITION ( 'UNKNOWN', '', #6, #234 ) ;
#228 = FACE_OUTER_BOUND ( 'NONE', #74, .T. ) ;
#229 = AXIS2_PLACEMENT_3D ( 'NONE', #188, #52, #171 ) ;
#230 = DIRECTION ( 'NONE',  ( -4.271469831664863477E-31, -1.000000000000000000, -1.223397583181748052E-16 ) ) ;
#231 = DIRECTION ( 'NONE',  ( 3.491481338843133355E-15, -1.224646799147353207E-16, 1.000000000000000000 ) ) ;
#232 = CARTESIAN_POINT ( 'NONE',  ( -6.413747168845438786E-31, 2.249639673992786412E-32, -1.836970198721029934E-16 ) ) ;
#233 = PERSON_AND_ORGANIZATION ( #203, #116 ) ;
#234 = DESIGN_CONTEXT ( 'detailed design', #220, 'design' ) ;
#235 = DATE_AND_TIME ( #11, #211 ) ;
#236 = CARTESIAN_POINT ( 'NONE',  ( 3.491481338843133355E-16, 0.0000000000000000000, 0.1000000000000000056 ) ) ;
#237 = PERSON_AND_ORGANIZATION ( #203, #116 ) ;
#238 = TOROIDAL_SURFACE ( 'NONE', #225, 10.50000000000000000, 8.000000000000000000 ) ;
#239 = CC_DESIGN_APPROVAL ( #32, ( #94 ) ) ;
#240 = EDGE_LOOP ( 'NONE', ( #17 ) ) ;
#241 = FACE_OUTER_BOUND ( 'NONE', #144, .T. ) ;
#242 = VERTEX_POINT ( 'NONE', #76 ) ;
#243 = CIRCLE ( 'NONE', #78, 2.500000000000000000 ) ;
ENDSEC;
END-ISO-10303-21;
