ISO-10303-21;
HEADER;
FILE_DESCRIPTION (( 'STEP AP203' ),
    '1' );
FILE_NAME ('36306.step',
    '2021-11-12T07:08:16',
    ( '' ),
    ( '' ),
    'SwSTEP 2.0',
    'SolidWorks 2019',
    '' );
FILE_SCHEMA (( 'CONFIG_CONTROL_DESIGN' ));
ENDSEC;

DATA;
#1 = PERSON_AND_ORGANIZATION ( #203, #164 ) ;
#2 = DIRECTION ( 'NONE',  ( -3.491481338843133355E-15, 1.224646799147353207E-16, -1.000000000000000000 ) ) ;
#3 = EDGE_CURVE ( 'NONE', #130, #130, #153, .T. ) ;
#4 = APPROVAL_STATUS ( 'not_yet_approved' ) ;
#5 = CARTESIAN_POINT ( 'NONE',  ( 2.793185071074506053E-14, -1.734723475976807094E-15, 7.999999999999998224 ) ) ;
#6 =( LENGTH_UNIT ( ) NAMED_UNIT ( * ) SI_UNIT ( .MILLI., .METRE. ) );
#7 = DIRECTION ( 'NONE',  ( -3.491481338843133355E-15, 1.224646799147353207E-16, -1.000000000000000000 ) ) ;
#8 = LOCAL_TIME ( 8, 8, 16.00000000000000000, #98 ) ;
#9 = ADVANCED_FACE ( 'NONE', ( #177, #131 ), #231, .T. ) ;
#10 = CARTESIAN_POINT ( 'NONE',  ( 0.0000000000000000000, 0.0000000000000000000, 0.0000000000000000000 ) ) ;
#11 = FACE_OUTER_BOUND ( 'NONE', #17, .T. ) ;
#12 = DIRECTION ( 'NONE',  ( 1.000000000000000000, 0.0000000000000000000, 0.0000000000000000000 ) ) ;
#13 = EDGE_LOOP ( 'NONE', ( #88 ) ) ;
#14 = DIRECTION ( 'NONE',  ( 3.491481338843133355E-15, -1.224646799147353207E-16, 1.000000000000000000 ) ) ;
#15 = EDGE_LOOP ( 'NONE', ( #199 ) ) ;
#16 = EDGE_LOOP ( 'NONE', ( #54 ) ) ;
#17 = EDGE_LOOP ( 'NONE', ( #179 ) ) ;
#18 = CC_DESIGN_PERSON_AND_ORGANIZATION_ASSIGNMENT ( #76, #144, ( #178 ) ) ;
#19 = AXIS2_PLACEMENT_3D ( 'NONE', #5, #150, #208 ) ;
#20 = COORDINATED_UNIVERSAL_TIME_OFFSET ( 1, 0, .AHEAD. ) ;
#21 = ADVANCED_FACE ( 'NONE', ( #156 ), #147, .T. ) ;
#22 = EDGE_CURVE ( 'NONE', #45, #45, #94, .T. ) ;
#23 = APPROVAL_DATE_TIME ( #113, #58 ) ;
#24 = CARTESIAN_POINT ( 'NONE',  ( 0.0000000000000000000, 0.0000000000000000000, 0.0000000000000000000 ) ) ;
#25 = DIRECTION ( 'NONE',  ( 1.000000000000000000, 0.0000000000000000000, -3.487992515430340234E-15 ) ) ;
#26 = EDGE_LOOP ( 'NONE', ( #160 ) ) ;
#27 = MECHANICAL_CONTEXT ( 'NONE', #229, 'mechanical' ) ;
#28 = DIRECTION ( 'NONE',  ( 4.275831445896958607E-31, 1.000000000000000000, 1.224646799147353207E-16 ) ) ;
#29 = AXIS2_PLACEMENT_3D ( 'NONE', #67, #129, #77 ) ;
#30 = CARTESIAN_POINT ( 'NONE',  ( 1.724791781388508004E-13, 2.999999999999995559, 49.39999999999999858 ) ) ;
#31 = FACE_OUTER_BOUND ( 'NONE', #87, .T. ) ;
#32 = CARTESIAN_POINT ( 'NONE',  ( 2.793185071074506684E-14, 2.249639673992785317E-32, 8.000000000000000000 ) ) ;
#33 = CARTESIAN_POINT ( 'NONE',  ( 1.724791781388508004E-13, -6.049755187787925154E-15, 49.39999999999999858 ) ) ;
#34 = ORIENTED_EDGE ( 'NONE', *, *, #22, .T. ) ;
#35 = AXIS2_PLACEMENT_3D ( 'NONE', #154, #134, #209 ) ;
#36 = EDGE_LOOP ( 'NONE', ( #138 ) ) ;
#37 = CC_DESIGN_DATE_AND_TIME_ASSIGNMENT ( #172, #74, ( #178 ) ) ;
#38 = PRODUCT ( '36306', '36306', '', ( #27 ) ) ;
#39 = CALENDAR_DATE ( 2021, 12, 11 ) ;
#40 = PLANE ( 'NONE',  #225 ) ;
#41 = AXIS2_PLACEMENT_3D ( 'NONE', #132, #233, #117 ) ;
#42 = PERSON_AND_ORGANIZATION ( #203, #164 ) ;
#43 = FACE_OUTER_BOUND ( 'NONE', #13, .T. ) ;
#44 = CARTESIAN_POINT ( 'NONE',  ( -4.731839565957903391E-32, 0.0000000000000000000, -1.355252715606880543E-17 ) ) ;
#45 = VERTEX_POINT ( 'NONE', #122 ) ;
#46 = EDGE_CURVE ( 'NONE', #192, #192, #52, .T. ) ;
#47 = FACE_OUTER_BOUND ( 'NONE', #36, .T. ) ;
#48 = PLANE ( 'NONE',  #232 ) ;
#49 = DIRECTION ( 'NONE',  ( 3.491481338843133355E-15, -1.223397583181748052E-16, 1.000000000000000000 ) ) ;
#50 = CC_DESIGN_APPROVAL ( #58, ( #178 ) ) ;
#51 = DIRECTION ( 'NONE',  ( 1.000000000000000000, 0.0000000000000000000, -3.487992515430340234E-15 ) ) ;
#52 = CIRCLE ( 'NONE', #29, 3.000000000000001776 ) ;
#53 = EDGE_CURVE ( 'NONE', #116, #116, #70, .T. ) ;
#54 = ORIENTED_EDGE ( 'NONE', *, *, #3, .T. ) ;
#55 =( GEOMETRIC_REPRESENTATION_CONTEXT ( 3 ) GLOBAL_UNCERTAINTY_ASSIGNED_CONTEXT ( ( #112 ) ) GLOBAL_UNIT_ASSIGNED_CONTEXT ( ( #6, #133, #151 ) ) REPRESENTATION_CONTEXT ( 'NONE', 'WORKASPACE' ) );
#56 = COORDINATED_UNIVERSAL_TIME_OFFSET ( 1, 0, .AHEAD. ) ;
#57 = AXIS2_PLACEMENT_3D ( 'NONE', #24, #196, #80 ) ;
#58 = APPROVAL ( #165, 'UNSPECIFIED' ) ;
#59 = PERSON_AND_ORGANIZATION_ROLE ( 'classification_officer' ) ;
#60 = DIRECTION ( 'NONE',  ( 1.000000000000000000, 0.0000000000000000000, -3.491481338843133355E-15 ) ) ;
#61 = APPROVAL_ROLE ( '' ) ;
#62 = CARTESIAN_POINT ( 'NONE',  ( 2.793185071074506053E-14, -9.787180665453982442E-16, 7.999999999999998224 ) ) ;
#63 = APPROVAL_PERSON_ORGANIZATION ( #168, #73, #61 ) ;
#64 = CARTESIAN_POINT ( 'NONE',  ( 3.491481338843133355E-16, 0.0000000000000000000, 0.1000000000000000056 ) ) ;
#65 = CARTESIAN_POINT ( 'NONE',  ( 1.745740669421566678E-13, 2.399999999999995914, 50.00000000000000000 ) ) ;
#66 = APPLICATION_PROTOCOL_DEFINITION ( 'international standard', 'config_control_design', 1994, #229 ) ;
#67 = CARTESIAN_POINT ( 'NONE',  ( 1.724791781388508004E-13, -6.049755187787925154E-15, 49.39999999999999858 ) ) ;
#68 = EDGE_CURVE ( 'NONE', #119, #119, #126, .T. ) ;
#69 = ORIENTED_EDGE ( 'NONE', *, *, #91, .F. ) ;
#70 = CIRCLE ( 'NONE', #108, 1.899999999999998357 ) ;
#71 = CLOSED_SHELL ( 'NONE', ( #9, #21, #227, #221 ) ) ;
#72 = PERSON_AND_ORGANIZATION_ROLE ( 'design_supplier' ) ;
#73 = APPROVAL ( #4, 'UNSPECIFIED' ) ;
#74 = DATE_TIME_ROLE ( 'creation_date' ) ;
#75 = CC_DESIGN_APPROVAL ( #73, ( #103 ) ) ;
#76 = PERSON_AND_ORGANIZATION ( #203, #164 ) ;
#77 = DIRECTION ( 'NONE',  ( 0.0000000000000000000, 1.000000000000000000, 0.0000000000000000000 ) ) ;
#78 = PERSON_AND_ORGANIZATION_ROLE ( 'creator' ) ;
#79 = FACE_OUTER_BOUND ( 'NONE', #181, .T. ) ;
#80 = DIRECTION ( 'NONE',  ( -4.271469831664863477E-31, -1.000000000000000000, -1.223397583181748298E-16 ) ) ;
#81 = AXIS2_PLACEMENT_3D ( 'NONE', #33, #118, #171 ) ;
#82 = DIRECTION ( 'NONE',  ( 0.0000000000000000000, 0.0000000000000000000, 1.000000000000000000 ) ) ;
#83 = PLANE ( 'NONE',  #35 ) ;
#84 = PERSON_AND_ORGANIZATION ( #203, #164 ) ;
#85 = ORIENTED_EDGE ( 'NONE', *, *, #68, .F. ) ;
#86 = DIRECTION ( 'NONE',  ( 3.491481338843133355E-15, -0.0000000000000000000, 1.000000000000000000 ) ) ;
#87 = EDGE_LOOP ( 'NONE', ( #85 ) ) ;
#88 = ORIENTED_EDGE ( 'NONE', *, *, #3, .F. ) ;
#89 = EDGE_LOOP ( 'NONE', ( #218 ) ) ;
#90 = CIRCLE ( 'NONE', #183, 1.899999999999999911 ) ;
#91 = EDGE_CURVE ( 'NONE', #176, #176, #241, .T. ) ;
#92 = APPROVAL ( #96, 'UNSPECIFIED' ) ;
#93 = CC_DESIGN_APPROVAL ( #92, ( #175 ) ) ;
#94 = CIRCLE ( 'NONE', #142, 1.799999999999999822 ) ;
#95 = PERSON_AND_ORGANIZATION ( #203, #164 ) ;
#96 = APPROVAL_STATUS ( 'not_yet_approved' ) ;
#97 = APPROVAL_ROLE ( '' ) ;
#98 = COORDINATED_UNIVERSAL_TIME_OFFSET ( 1, 0, .AHEAD. ) ;
#99 = EDGE_LOOP ( 'NONE', ( #237 ) ) ;
#100 = DIRECTION ( 'NONE',  ( -4.275831445896958607E-31, -1.000000000000000000, -1.224646799147353207E-16 ) ) ;
#101 = DIRECTION ( 'NONE',  ( 3.491481338843133355E-15, -1.224646799147353207E-16, 1.000000000000000000 ) ) ;
#102 = DIRECTION ( 'NONE',  ( -3.491481338843133355E-15, 1.224646799147353207E-16, -1.000000000000000000 ) ) ;
#103 = PRODUCT_DEFINITION_FORMATION_WITH_SPECIFIED_SOURCE ( 'ANY', '', #38, .NOT_KNOWN. ) ;
#104 = EDGE_CURVE ( 'NONE', #234, #234, #90, .T. ) ;
#105 = CARTESIAN_POINT ( 'NONE',  ( 1.900000000000000355, 0.0000000000000000000, 0.09999999999999337197 ) ) ;
#106 = FACE_OUTER_BOUND ( 'NONE', #159, .T. ) ;
#107 = CARTESIAN_POINT ( 'NONE',  ( 3.491481338843133355E-16, 0.0000000000000000000, 0.1000000000000000056 ) ) ;
#108 = AXIS2_PLACEMENT_3D ( 'NONE', #236, #210, #174 ) ;
#109 = EDGE_LOOP ( 'NONE', ( #197 ) ) ;
#110 = APPLICATION_CONTEXT ( 'configuration controlled 3d designs of mechanical parts and assemblies' ) ;
#111 = LOCAL_TIME ( 8, 8, 16.00000000000000000, #223 ) ;
#112 = UNCERTAINTY_MEASURE_WITH_UNIT (LENGTH_MEASURE( 1.000000000000000082E-05 ), #6, 'distance_accuracy_value', 'NONE');
#113 = DATE_AND_TIME ( #186, #8 ) ;
#114 = ADVANCED_FACE ( 'NONE', ( #152, #205 ), #185, .T. ) ;
#115 = FACE_OUTER_BOUND ( 'NONE', #16, .T. ) ;
#116 = VERTEX_POINT ( 'NONE', #189 ) ;
#117 = DIRECTION ( 'NONE',  ( 0.0000000000000000000, 1.000000000000000000, 0.0000000000000000000 ) ) ;
#118 = DIRECTION ( 'NONE',  ( -3.491481338843133355E-15, 1.224646799147353207E-16, -1.000000000000000000 ) ) ;
#119 = VERTEX_POINT ( 'NONE', #65 ) ;
#120 = CARTESIAN_POINT ( 'NONE',  ( 2.793185071074506684E-14, 2.249639673992785317E-32, 8.000000000000000000 ) ) ;
#121 = AXIS2_PLACEMENT_3D ( 'NONE', #10, #82, #12 ) ;
#122 = CARTESIAN_POINT ( 'NONE',  ( 1.799999999999999822, 0.0000000000000000000, -6.298218937073708056E-15 ) ) ;
#123 = ORIENTED_EDGE ( 'NONE', *, *, #53, .T. ) ;
#124 = CLOSED_SHELL ( 'NONE', ( #200, #114, #161, #194, #222 ) ) ;
#125 = PRODUCT_RELATED_PRODUCT_CATEGORY ( 'detail', '', ( #38 ) ) ;
#126 = CIRCLE ( 'NONE', #158, 2.400000000000002132 ) ;
#127 = APPROVAL_DATE_TIME ( #143, #92 ) ;
#128 = CC_DESIGN_DATE_AND_TIME_ASSIGNMENT ( #170, #184, ( #175 ) ) ;
#129 = DIRECTION ( 'NONE',  ( -3.491481338843133355E-15, 1.224646799147353207E-16, -1.000000000000000000 ) ) ;
#130 = VERTEX_POINT ( 'NONE', #155 ) ;
#131 = FACE_OUTER_BOUND ( 'NONE', #26, .T. ) ;
#132 = CARTESIAN_POINT ( 'NONE',  ( 4.206696101764533750E-14, -2.230010665259022479E-15, 12.04845649599942981 ) ) ;
#133 =( NAMED_UNIT ( * ) PLANE_ANGLE_UNIT ( ) SI_UNIT ( $, .RADIAN. ) );
#134 = DIRECTION ( 'NONE',  ( -3.491481338843133355E-15, 1.224646799147353207E-16, -1.000000000000000000 ) ) ;
#135 = PERSON_AND_ORGANIZATION_ROLE ( 'design_owner' ) ;
#136 = DIRECTION ( 'NONE',  ( 0.0000000000000000000, -1.000000000000000000, 0.0000000000000000000 ) ) ;
#137 = LOCAL_TIME ( 8, 8, 16.00000000000000000, #242 ) ;
#138 = ORIENTED_EDGE ( 'NONE', *, *, #91, .T. ) ;
#139 = EDGE_LOOP ( 'NONE', ( #34 ) ) ;
#140 = LOCAL_TIME ( 8, 8, 16.00000000000000000, #56 ) ;
#141 = AXIS2_PLACEMENT_3D ( 'NONE', #62, #49, #136 ) ;
#142 = AXIS2_PLACEMENT_3D ( 'NONE', #44, #193, #60 ) ;
#143 = DATE_AND_TIME ( #224, #198 ) ;
#144 = PERSON_AND_ORGANIZATION_ROLE ( 'creator' ) ;
#145 = CALENDAR_DATE ( 2021, 12, 11 ) ;
#146 = CC_DESIGN_PERSON_AND_ORGANIZATION_ASSIGNMENT ( #84, #135, ( #38 ) ) ;
#147 = PLANE ( 'NONE',  #206 ) ;
#148 = MANIFOLD_SOLID_BREP ( 'Corps-Déplacer/Copier1[2]', #71 ) ;
#149 = PERSON_AND_ORGANIZATION ( #203, #164 ) ;
#150 = DIRECTION ( 'NONE',  ( 3.491481338843133355E-15, -1.223397583181748052E-16, 1.000000000000000000 ) ) ;
#151 =( NAMED_UNIT ( * ) SI_UNIT ( $, .STERADIAN. ) SOLID_ANGLE_UNIT ( ) );
#152 = FACE_BOUND ( 'NONE', #109, .T. ) ;
#153 = CIRCLE ( 'NONE', #141, 1.899999999999998357 ) ;
#154 = CARTESIAN_POINT ( 'NONE',  ( -6.413747168845438786E-31, 2.249639673992786412E-32, -1.836970198721029934E-16 ) ) ;
#155 = CARTESIAN_POINT ( 'NONE',  ( 2.793185071074506053E-14, -1.899999999999999245, 7.999999999999998224 ) ) ;
#156 = FACE_OUTER_BOUND ( 'NONE', #182, .T. ) ;
#157 = ORIENTED_EDGE ( 'NONE', *, *, #46, .T. ) ;
#158 = AXIS2_PLACEMENT_3D ( 'NONE', #188, #2, #228 ) ;
#159 = EDGE_LOOP ( 'NONE', ( #69 ) ) ;
#160 = ORIENTED_EDGE ( 'NONE', *, *, #104, .T. ) ;
#161 = ADVANCED_FACE ( 'NONE', ( #31 ), #48, .F. ) ;
#162 = AXIS2_PLACEMENT_3D ( 'NONE', #235, #7, #28 ) ;
#163 = PRODUCT_DEFINITION_SHAPE ( 'NONE', 'NONE',  #178 ) ;
#164 = ORGANIZATION ( 'UNSPECIFIED', 'UNSPECIFIED', '' ) ;
#165 = APPROVAL_STATUS ( 'not_yet_approved' ) ;
#166 = CALENDAR_DATE ( 2021, 12, 11 ) ;
#167 = CC_DESIGN_PERSON_AND_ORGANIZATION_ASSIGNMENT ( #95, #59, ( #175 ) ) ;
#168 = PERSON_AND_ORGANIZATION ( #203, #164 ) ;
#169 = CC_DESIGN_SECURITY_CLASSIFICATION ( #175, ( #103 ) ) ;
#170 = DATE_AND_TIME ( #39, #111 ) ;
#171 = DIRECTION ( 'NONE',  ( 0.0000000000000000000, 1.000000000000000000, 0.0000000000000000000 ) ) ;
#172 = DATE_AND_TIME ( #166, #140 ) ;
#173 = CARTESIAN_POINT ( 'NONE',  ( 1.745740669421566678E-13, 1.799711739194221740E-32, 50.00000000000000000 ) ) ;
#174 = DIRECTION ( 'NONE',  ( 0.0000000000000000000, -1.000000000000000000, 0.0000000000000000000 ) ) ;
#175 = SECURITY_CLASSIFICATION ( '', '', #243 ) ;
#176 = VERTEX_POINT ( 'NONE', #211 ) ;
#177 = FACE_OUTER_BOUND ( 'NONE', #15, .T. ) ;
#178 = PRODUCT_DEFINITION ( 'UNKNOWN', '', #103, #220 ) ;
#179 = ORIENTED_EDGE ( 'NONE', *, *, #22, .F. ) ;
#180 = APPROVAL_PERSON_ORGANIZATION ( #149, #92, #230 ) ;
#181 = EDGE_LOOP ( 'NONE', ( #157 ) ) ;
#182 = EDGE_LOOP ( 'NONE', ( #123 ) ) ;
#183 = AXIS2_PLACEMENT_3D ( 'NONE', #64, #216, #51 ) ;
#184 = DATE_TIME_ROLE ( 'classification_date' ) ;
#185 = CONICAL_SURFACE ( 'NONE', #81, 3.000000000000001776, 0.7853981633974453924 ) ;
#186 = CALENDAR_DATE ( 2021, 12, 11 ) ;
#187 = PERSON_AND_ORGANIZATION ( #203, #164 ) ;
#188 = CARTESIAN_POINT ( 'NONE',  ( 1.745740669421566678E-13, -6.123233995736766085E-15, 50.00000000000000000 ) ) ;
#189 = CARTESIAN_POINT ( 'NONE',  ( 2.793185071074506053E-14, -1.899999999999999245, 7.999999999999998224 ) ) ;
#190 = CYLINDRICAL_SURFACE ( 'NONE', #162, 3.000000000000000888 ) ;
#191 = DIRECTION ( 'NONE',  ( 4.275831445896958607E-31, 1.000000000000000000, 1.224646799147353207E-16 ) ) ;
#192 = VERTEX_POINT ( 'NONE', #30 ) ;
#193 = DIRECTION ( 'NONE',  ( 3.491481338843133355E-15, -0.0000000000000000000, 1.000000000000000000 ) ) ;
#194 = ADVANCED_FACE ( 'NONE', ( #106, #115 ), #239, .F. ) ;
#195 = FACE_BOUND ( 'NONE', #139, .T. ) ;
#196 = DIRECTION ( 'NONE',  ( 3.491481338843133355E-15, -1.223397583181748052E-16, 1.000000000000000000 ) ) ;
#197 = ORIENTED_EDGE ( 'NONE', *, *, #68, .T. ) ;
#198 = LOCAL_TIME ( 8, 8, 16.00000000000000000, #20 ) ;
#199 = ORIENTED_EDGE ( 'NONE', *, *, #53, .F. ) ;
#200 = ADVANCED_FACE ( 'NONE', ( #79, #47 ), #190, .T. ) ;
#201 = SHAPE_DEFINITION_REPRESENTATION ( #163, #219 ) ;
#202 = CONICAL_SURFACE ( 'NONE', #214, 1.899999999999999911, 0.7853981633974495002 ) ;
#203 = PERSON ( 'UNSPECIFIED', 'UNSPECIFIED', 'UNSPECIFIED', ('UNSPECIFIED'), ('UNSPECIFIED'), ('UNSPECIFIED') ) ;
#204 = DATE_AND_TIME ( #145, #137 ) ;
#205 = FACE_OUTER_BOUND ( 'NONE', #99, .T. ) ;
#206 = AXIS2_PLACEMENT_3D ( 'NONE', #120, #101, #212 ) ;
#207 = FACE_OUTER_BOUND ( 'NONE', #89, .T. ) ;
#208 = DIRECTION ( 'NONE',  ( -4.330811271672147318E-31, -1.000000000000000000, -1.223397583181748052E-16 ) ) ;
#209 = DIRECTION ( 'NONE',  ( 4.275831445896958607E-31, 1.000000000000000000, 1.224646799147353207E-16 ) ) ;
#210 = DIRECTION ( 'NONE',  ( 3.491481338843133355E-15, -1.223397583181748052E-16, 1.000000000000000000 ) ) ;
#211 = CARTESIAN_POINT ( 'NONE',  ( 4.206696101764533750E-14, 2.999999999999998668, 12.04845649599942981 ) ) ;
#212 = DIRECTION ( 'NONE',  ( -4.275831445896958607E-31, -1.000000000000000000, -1.224646799147353207E-16 ) ) ;
#213 = CC_DESIGN_PERSON_AND_ORGANIZATION_ASSIGNMENT ( #42, #78, ( #103 ) ) ;
#214 = AXIS2_PLACEMENT_3D ( 'NONE', #107, #86, #25 ) ;
#215 = APPLICATION_PROTOCOL_DEFINITION ( 'international standard', 'config_control_design', 1994, #110 ) ;
#216 = DIRECTION ( 'NONE',  ( 3.491481338843133355E-15, -0.0000000000000000000, 1.000000000000000000 ) ) ;
#217 = APPROVAL_PERSON_ORGANIZATION ( #187, #58, #97 ) ;
#218 = ORIENTED_EDGE ( 'NONE', *, *, #104, .F. ) ;
#219 = ADVANCED_BREP_SHAPE_REPRESENTATION ( '36306', ( #238, #148, #121 ), #55 ) ;
#220 = DESIGN_CONTEXT ( 'detailed design', #110, 'design' ) ;
#221 = ADVANCED_FACE ( 'NONE', ( #11 ), #83, .T. ) ;
#222 = ADVANCED_FACE ( 'NONE', ( #43 ), #40, .F. ) ;
#223 = COORDINATED_UNIVERSAL_TIME_OFFSET ( 1, 0, .AHEAD. ) ;
#224 = CALENDAR_DATE ( 2021, 12, 11 ) ;
#225 = AXIS2_PLACEMENT_3D ( 'NONE', #32, #14, #100 ) ;
#226 = APPROVAL_DATE_TIME ( #204, #73 ) ;
#227 = ADVANCED_FACE ( 'NONE', ( #195, #207 ), #202, .T. ) ;
#228 = DIRECTION ( 'NONE',  ( 0.0000000000000000000, 1.000000000000000000, 0.0000000000000000000 ) ) ;
#229 = APPLICATION_CONTEXT ( 'configuration controlled 3d designs of mechanical parts and assemblies' ) ;
#230 = APPROVAL_ROLE ( '' ) ;
#231 = CYLINDRICAL_SURFACE ( 'NONE', #57, 1.899999999999999023 ) ;
#232 = AXIS2_PLACEMENT_3D ( 'NONE', #173, #102, #191 ) ;
#233 = DIRECTION ( 'NONE',  ( 3.491481338843133355E-15, -1.223397583181748052E-16, 1.000000000000000000 ) ) ;
#234 = VERTEX_POINT ( 'NONE', #105 ) ;
#235 = CARTESIAN_POINT ( 'NONE',  ( 0.0000000000000000000, 0.0000000000000000000, 0.0000000000000000000 ) ) ;
#236 = CARTESIAN_POINT ( 'NONE',  ( 2.793185071074506053E-14, -9.787180665453982442E-16, 7.999999999999998224 ) ) ;
#237 = ORIENTED_EDGE ( 'NONE', *, *, #46, .F. ) ;
#238 = MANIFOLD_SOLID_BREP ( 'Corps-Déplacer/Copier1[1]', #124 ) ;
#239 = TOROIDAL_SURFACE ( 'NONE', #19, 9.900000000000000355, 8.000000000000000000 ) ;
#240 = CC_DESIGN_PERSON_AND_ORGANIZATION_ASSIGNMENT ( #1, #72, ( #103 ) ) ;
#241 = CIRCLE ( 'NONE', #41, 3.000000000000000888 ) ;
#242 = COORDINATED_UNIVERSAL_TIME_OFFSET ( 1, 0, .AHEAD. ) ;
#243 = SECURITY_CLASSIFICATION_LEVEL ( 'unclassified' ) ;
ENDSEC;
END-ISO-10303-21;
