ISO-10303-21;
HEADER;
FILE_DESCRIPTION (( 'STEP AP203' ),
    '1' );
FILE_NAME ('36305.step',
    '2021-11-12T07:08:15',
    ( '' ),
    ( '' ),
    'SwSTEP 2.0',
    'SolidWorks 2019',
    '' );
FILE_SCHEMA (( 'CONFIG_CONTROL_DESIGN' ));
ENDSEC;

DATA;
#1 = EDGE_CURVE ( 'NONE', #141, #141, #225, .T. ) ;
#2 = SHAPE_DEFINITION_REPRESENTATION ( #87, #17 ) ;
#3 = PERSON_AND_ORGANIZATION ( #84, #167 ) ;
#4 = PRODUCT_DEFINITION ( 'UNKNOWN', '', #15, #31 ) ;
#5 = DIRECTION ( 'NONE',  ( 3.491481338843133355E-15, -1.224646799147353207E-16, 1.000000000000000000 ) ) ;
#6 = CIRCLE ( 'NONE', #48, 1.500000000000000222 ) ;
#7 = CARTESIAN_POINT ( 'NONE',  ( 2.094888803305879698E-14, -7.340385499090487324E-16, 5.999999999999999112 ) ) ;
#8 = DIRECTION ( 'NONE',  ( -4.332167647443742332E-31, -1.000000000000000000, -1.223397583181748052E-16 ) ) ;
#9 = FACE_BOUND ( 'NONE', #29, .T. ) ;
#10 = CC_DESIGN_SECURITY_CLASSIFICATION ( #127, ( #15 ) ) ;
#11 = EDGE_LOOP ( 'NONE', ( #122 ) ) ;
#12 = CARTESIAN_POINT ( 'NONE',  ( 3.491481338843133355E-16, 0.0000000000000000000, 0.1000000000000000056 ) ) ;
#13 = DIRECTION ( 'NONE',  ( -3.491481338843133355E-15, 1.224646799147353207E-16, -1.000000000000000000 ) ) ;
#14 = AXIS2_PLACEMENT_3D ( 'NONE', #213, #76, #21 ) ;
#15 = PRODUCT_DEFINITION_FORMATION_WITH_SPECIFIED_SOURCE ( 'ANY', '', #147, .NOT_KNOWN. ) ;
#16 = VERTEX_POINT ( 'NONE', #173 ) ;
#17 = ADVANCED_BREP_SHAPE_REPRESENTATION ( '36305', ( #203, #37, #226 ), #212 ) ;
#18 = CC_DESIGN_DATE_AND_TIME_ASSIGNMENT ( #113, #229, ( #4 ) ) ;
#19 = APPROVAL_PERSON_ORGANIZATION ( #152, #97, #70 ) ;
#20 = PERSON_AND_ORGANIZATION_ROLE ( 'design_supplier' ) ;
#21 = DIRECTION ( 'NONE',  ( 0.0000000000000000000, 1.000000000000000000, 0.0000000000000000000 ) ) ;
#22 = FACE_OUTER_BOUND ( 'NONE', #80, .T. ) ;
#23 = FACE_OUTER_BOUND ( 'NONE', #197, .T. ) ;
#24 = CC_DESIGN_DATE_AND_TIME_ASSIGNMENT ( #133, #231, ( #127 ) ) ;
#25 = EDGE_LOOP ( 'NONE', ( #27 ) ) ;
#26 = VERTEX_POINT ( 'NONE', #178 ) ;
#27 = ORIENTED_EDGE ( 'NONE', *, *, #214, .F. ) ;
#28 = CC_DESIGN_APPROVAL ( #86, ( #15 ) ) ;
#29 = EDGE_LOOP ( 'NONE', ( #139 ) ) ;
#30 = DIRECTION ( 'NONE',  ( 3.491481338843133355E-15, -1.223397583181748052E-16, 1.000000000000000000 ) ) ;
#31 = DESIGN_CONTEXT ( 'detailed design', #107, 'design' ) ;
#32 = PERSON_AND_ORGANIZATION_ROLE ( 'creator' ) ;
#33 = CC_DESIGN_PERSON_AND_ORGANIZATION_ASSIGNMENT ( #151, #32, ( #4 ) ) ;
#34 = CARTESIAN_POINT ( 'NONE',  ( 3.723207298514677330E-14, 3.000000000000000444, 10.66368952654440960 ) ) ;
#35 = APPROVAL_DATE_TIME ( #170, #205 ) ;
#36 = CARTESIAN_POINT ( 'NONE',  ( 1.500000000000000444, 0.0000000000000000000, 0.09999999999999477363 ) ) ;
#37 = MANIFOLD_SOLID_BREP ( 'Corps-Déplacer/Copier1[2]', #179 ) ;
#38 = SECURITY_CLASSIFICATION_LEVEL ( 'unclassified' ) ;
#39 = DIRECTION ( 'NONE',  ( 4.275831445896958607E-31, 1.000000000000000000, 1.224646799147353207E-16 ) ) ;
#40 = FACE_OUTER_BOUND ( 'NONE', #25, .T. ) ;
#41 = CIRCLE ( 'NONE', #103, 3.000000000000001776 ) ;
#42 = DIRECTION ( 'NONE',  ( 0.0000000000000000000, -1.000000000000000000, 0.0000000000000000000 ) ) ;
#43 = EDGE_LOOP ( 'NONE', ( #100 ) ) ;
#44 = FACE_OUTER_BOUND ( 'NONE', #180, .T. ) ;
#45 = ORIENTED_EDGE ( 'NONE', *, *, #126, .F. ) ;
#46 = CARTESIAN_POINT ( 'NONE',  ( -6.413747168845438786E-31, 2.249639673992786412E-32, -1.836970198721029934E-16 ) ) ;
#47 = CIRCLE ( 'NONE', #14, 3.000000000000000888 ) ;
#48 = AXIS2_PLACEMENT_3D ( 'NONE', #7, #78, #42 ) ;
#49 = CC_DESIGN_PERSON_AND_ORGANIZATION_ASSIGNMENT ( #149, #207, ( #147 ) ) ;
#50 = PLANE ( 'NONE',  #242 ) ;
#51 = APPLICATION_CONTEXT ( 'configuration controlled 3d designs of mechanical parts and assemblies' ) ;
#52 = ORIENTED_EDGE ( 'NONE', *, *, #137, .T. ) ;
#53 = CARTESIAN_POINT ( 'NONE',  ( 1.724791781388508004E-13, 2.999999999999995559, 49.39999999999999858 ) ) ;
#54 = PERSON_AND_ORGANIZATION ( #84, #167 ) ;
#55 = APPROVAL_ROLE ( '' ) ;
#56 = DIRECTION ( 'NONE',  ( 0.0000000000000000000, 0.0000000000000000000, 1.000000000000000000 ) ) ;
#57 = VERTEX_POINT ( 'NONE', #136 ) ;
#58 = DIRECTION ( 'NONE',  ( -4.275831445896958607E-31, -1.000000000000000000, -1.224646799147353207E-16 ) ) ;
#59 = PLANE ( 'NONE',  #189 ) ;
#60 = DIRECTION ( 'NONE',  ( 4.275831445896958607E-31, 1.000000000000000000, 1.224646799147353207E-16 ) ) ;
#61 = ORIENTED_EDGE ( 'NONE', *, *, #137, .F. ) ;
#62 = CARTESIAN_POINT ( 'NONE',  ( 2.094888803305880013E-14, 2.249639673992785317E-32, 6.000000000000000000 ) ) ;
#63 = ADVANCED_FACE ( 'NONE', ( #181 ), #165, .T. ) ;
#64 = DIRECTION ( 'NONE',  ( -3.491481338843133355E-15, 1.224646799147353207E-16, -1.000000000000000000 ) ) ;
#65 = APPROVAL_PERSON_ORGANIZATION ( #3, #205, #55 ) ;
#66 = CARTESIAN_POINT ( 'NONE',  ( 3.491481338843133355E-16, 0.0000000000000000000, 0.1000000000000000056 ) ) ;
#67 = CC_DESIGN_PERSON_AND_ORGANIZATION_ASSIGNMENT ( #172, #73, ( #127 ) ) ;
#68 = AXIS2_PLACEMENT_3D ( 'NONE', #12, #241, #125 ) ;
#69 = LOCAL_TIME ( 8, 8, 15.00000000000000000, #72 ) ;
#70 = APPROVAL_ROLE ( '' ) ;
#71 = APPLICATION_PROTOCOL_DEFINITION ( 'international standard', 'config_control_design', 1994, #51 ) ;
#72 = COORDINATED_UNIVERSAL_TIME_OFFSET ( 1, 0, .AHEAD. ) ;
#73 = PERSON_AND_ORGANIZATION_ROLE ( 'classification_officer' ) ;
#74 = CALENDAR_DATE ( 2021, 12, 11 ) ;
#75 = LOCAL_TIME ( 8, 8, 15.00000000000000000, #153 ) ;
#76 = DIRECTION ( 'NONE',  ( 3.491481338843133355E-15, -1.223397583181748052E-16, 1.000000000000000000 ) ) ;
#77 = ADVANCED_FACE ( 'NONE', ( #164 ), #50, .T. ) ;
#78 = DIRECTION ( 'NONE',  ( 3.491481338843133355E-15, -1.223397583181748052E-16, 1.000000000000000000 ) ) ;
#79 = CYLINDRICAL_SURFACE ( 'NONE', #166, 3.000000000000000888 ) ;
#80 = EDGE_LOOP ( 'NONE', ( #52 ) ) ;
#81 = CONICAL_SURFACE ( 'NONE', #68, 1.500000000000000000, 0.7853981633974495002 ) ;
#82 = EDGE_LOOP ( 'NONE', ( #142 ) ) ;
#83 = EDGE_LOOP ( 'NONE', ( #120 ) ) ;
#84 = PERSON ( 'UNSPECIFIED', 'UNSPECIFIED', 'UNSPECIFIED', ('UNSPECIFIED'), ('UNSPECIFIED'), ('UNSPECIFIED') ) ;
#85 = ORIENTED_EDGE ( 'NONE', *, *, #126, .T. ) ;
#86 = APPROVAL ( #190, 'UNSPECIFIED' ) ;
#87 = PRODUCT_DEFINITION_SHAPE ( 'NONE', 'NONE',  #4 ) ;
#88 = AXIS2_PLACEMENT_3D ( 'NONE', #163, #220, #221 ) ;
#89 = LOCAL_TIME ( 8, 8, 15.00000000000000000, #148 ) ;
#90 = APPROVAL_STATUS ( 'not_yet_approved' ) ;
#91 = APPROVAL_STATUS ( 'not_yet_approved' ) ;
#92 = VERTEX_POINT ( 'NONE', #34 ) ;
#93 = CALENDAR_DATE ( 2021, 12, 11 ) ;
#94 = DATE_AND_TIME ( #232, #184 ) ;
#95 = ADVANCED_FACE ( 'NONE', ( #9, #104 ), #81, .T. ) ;
#96 = CARTESIAN_POINT ( 'NONE',  ( 0.0000000000000000000, 0.0000000000000000000, 0.0000000000000000000 ) ) ;
#97 = APPROVAL ( #90, 'UNSPECIFIED' ) ;
#98 = CARTESIAN_POINT ( 'NONE',  ( 1.724791781388508004E-13, -6.049755187787925154E-15, 49.39999999999999858 ) ) ;
#99 = FACE_OUTER_BOUND ( 'NONE', #11, .T. ) ;
#100 = ORIENTED_EDGE ( 'NONE', *, *, #1, .F. ) ;
#101 = FACE_OUTER_BOUND ( 'NONE', #82, .T. ) ;
#102 = EDGE_LOOP ( 'NONE', ( #161 ) ) ;
#103 = AXIS2_PLACEMENT_3D ( 'NONE', #98, #237, #138 ) ;
#104 = FACE_OUTER_BOUND ( 'NONE', #217, .T. ) ;
#105 = DIRECTION ( 'NONE',  ( 0.0000000000000000000, -1.000000000000000000, 0.0000000000000000000 ) ) ;
#106 = PRODUCT_RELATED_PRODUCT_CATEGORY ( 'detail', '', ( #147 ) ) ;
#107 = APPLICATION_CONTEXT ( 'configuration controlled 3d designs of mechanical parts and assemblies' ) ;
#108 = EDGE_CURVE ( 'NONE', #26, #26, #114, .T. ) ;
#109 = AXIS2_PLACEMENT_3D ( 'NONE', #159, #238, #60 ) ;
#110 = COORDINATED_UNIVERSAL_TIME_OFFSET ( 1, 0, .AHEAD. ) ;
#111 = CC_DESIGN_PERSON_AND_ORGANIZATION_ASSIGNMENT ( #210, #20, ( #15 ) ) ;
#112 = COORDINATED_UNIVERSAL_TIME_OFFSET ( 1, 0, .AHEAD. ) ;
#113 = DATE_AND_TIME ( #187, #69 ) ;
#114 = CIRCLE ( 'NONE', #118, 1.500000000000000222 ) ;
#115 = PERSON_AND_ORGANIZATION_ROLE ( 'creator' ) ;
#116 = CARTESIAN_POINT ( 'NONE',  ( 2.094888803305879698E-14, 0.0000000000000000000, 5.999999999999999112 ) ) ;
#117 = DIRECTION ( 'NONE',  ( -3.491481338843133355E-15, 1.224646799147353207E-16, -1.000000000000000000 ) ) ;
#118 = AXIS2_PLACEMENT_3D ( 'NONE', #202, #30, #105 ) ;
#119 = FACE_OUTER_BOUND ( 'NONE', #219, .T. ) ;
#120 = ORIENTED_EDGE ( 'NONE', *, *, #214, .T. ) ;
#121 = CARTESIAN_POINT ( 'NONE',  ( 1.399999999999999689, 0.0000000000000000000, -4.901626401536454714E-15 ) ) ;
#122 = ORIENTED_EDGE ( 'NONE', *, *, #168, .T. ) ;
#123 = EDGE_LOOP ( 'NONE', ( #144 ) ) ;
#124 = CLOSED_SHELL ( 'NONE', ( #199, #204, #230, #154, #150 ) ) ;
#125 = DIRECTION ( 'NONE',  ( 1.000000000000000000, 0.0000000000000000000, -3.487516988161706061E-15 ) ) ;
#126 = EDGE_CURVE ( 'NONE', #57, #57, #130, .T. ) ;
#127 = SECURITY_CLASSIFICATION ( '', '', #38 ) ;
#128 = CARTESIAN_POINT ( 'NONE',  ( 0.0000000000000000000, 0.0000000000000000000, 0.0000000000000000000 ) ) ;
#129 = MECHANICAL_CONTEXT ( 'NONE', #51, 'mechanical' ) ;
#130 = CIRCLE ( 'NONE', #135, 2.400000000000002132 ) ;
#131 = CALENDAR_DATE ( 2021, 12, 11 ) ;
#132 = PERSON_AND_ORGANIZATION ( #84, #167 ) ;
#133 = DATE_AND_TIME ( #74, #75 ) ;
#134 = VERTEX_POINT ( 'NONE', #36 ) ;
#135 = AXIS2_PLACEMENT_3D ( 'NONE', #182, #13, #243 ) ;
#136 = CARTESIAN_POINT ( 'NONE',  ( 1.745740669421566678E-13, 2.399999999999995914, 50.00000000000000000 ) ) ;
#137 = EDGE_CURVE ( 'NONE', #134, #134, #160, .T. ) ;
#138 = DIRECTION ( 'NONE',  ( 0.0000000000000000000, 1.000000000000000000, 0.0000000000000000000 ) ) ;
#139 = ORIENTED_EDGE ( 'NONE', *, *, #1, .T. ) ;
#140 = AXIS2_PLACEMENT_3D ( 'NONE', #218, #216, #192 ) ;
#141 = VERTEX_POINT ( 'NONE', #121 ) ;
#142 = ORIENTED_EDGE ( 'NONE', *, *, #168, .F. ) ;
#143 = DIRECTION ( 'NONE',  ( 3.491481338843133355E-15, -1.224646799147353207E-16, 1.000000000000000000 ) ) ;
#144 = ORIENTED_EDGE ( 'NONE', *, *, #227, .F. ) ;
#145 = LOCAL_TIME ( 8, 8, 15.00000000000000000, #110 ) ;
#146 = ORIENTED_EDGE ( 'NONE', *, *, #108, .F. ) ;
#147 = PRODUCT ( '36305', '36305', '', ( #129 ) ) ;
#148 = COORDINATED_UNIVERSAL_TIME_OFFSET ( 1, 0, .AHEAD. ) ;
#149 = PERSON_AND_ORGANIZATION ( #84, #167 ) ;
#150 = ADVANCED_FACE ( 'NONE', ( #44 ), #59, .F. ) ;
#151 = PERSON_AND_ORGANIZATION ( #84, #167 ) ;
#152 = PERSON_AND_ORGANIZATION ( #84, #167 ) ;
#153 = COORDINATED_UNIVERSAL_TIME_OFFSET ( 1, 0, .AHEAD. ) ;
#154 = ADVANCED_FACE ( 'NONE', ( #101, #23 ), #234, .F. ) ;
#155 = AXIS2_PLACEMENT_3D ( 'NONE', #116, #235, #8 ) ;
#156 = FACE_OUTER_BOUND ( 'NONE', #123, .T. ) ;
#157 = CARTESIAN_POINT ( 'NONE',  ( 1.724791781388508004E-13, -6.049755187787925154E-15, 49.39999999999999858 ) ) ;
#158 = CC_DESIGN_PERSON_AND_ORGANIZATION_ASSIGNMENT ( #132, #115, ( #15 ) ) ;
#159 = CARTESIAN_POINT ( 'NONE',  ( 1.745740669421566678E-13, 1.799711739194221740E-32, 50.00000000000000000 ) ) ;
#160 = CIRCLE ( 'NONE', #200, 1.500000000000000000 ) ;
#161 = ORIENTED_EDGE ( 'NONE', *, *, #227, .T. ) ;
#162 = CC_DESIGN_APPROVAL ( #97, ( #127 ) ) ;
#163 = CARTESIAN_POINT ( 'NONE',  ( -4.731839565957903391E-32, 0.0000000000000000000, -1.355252715606880543E-17 ) ) ;
#164 = FACE_OUTER_BOUND ( 'NONE', #102, .T. ) ;
#165 = PLANE ( 'NONE',  #195 ) ;
#166 = AXIS2_PLACEMENT_3D ( 'NONE', #96, #236, #39 ) ;
#167 = ORGANIZATION ( 'UNSPECIFIED', 'UNSPECIFIED', '' ) ;
#168 = EDGE_CURVE ( 'NONE', #92, #92, #47, .T. ) ;
#169 =( NAMED_UNIT ( * ) SI_UNIT ( $, .STERADIAN. ) SOLID_ANGLE_UNIT ( ) );
#170 = DATE_AND_TIME ( #93, #145 ) ;
#171 = APPLICATION_PROTOCOL_DEFINITION ( 'international standard', 'config_control_design', 1994, #107 ) ;
#172 = PERSON_AND_ORGANIZATION ( #84, #167 ) ;
#173 = CARTESIAN_POINT ( 'NONE',  ( 2.094888803305879698E-14, -1.500000000000000888, 5.999999999999999112 ) ) ;
#174 = CARTESIAN_POINT ( 'NONE',  ( 2.094888803305880013E-14, 2.249639673992785317E-32, 6.000000000000000000 ) ) ;
#175 = FACE_BOUND ( 'NONE', #239, .T. ) ;
#176 = CYLINDRICAL_SURFACE ( 'NONE', #140, 1.500000000000000000 ) ;
#177 = DIRECTION ( 'NONE',  ( -4.275831445896958607E-31, -1.000000000000000000, -1.224646799147353207E-16 ) ) ;
#178 = CARTESIAN_POINT ( 'NONE',  ( 2.094888803305879698E-14, -1.500000000000000888, 5.999999999999999112 ) ) ;
#179 = CLOSED_SHELL ( 'NONE', ( #193, #77, #95, #63 ) ) ;
#180 = EDGE_LOOP ( 'NONE', ( #146 ) ) ;
#181 = FACE_OUTER_BOUND ( 'NONE', #43, .T. ) ;
#182 = CARTESIAN_POINT ( 'NONE',  ( 1.745740669421566678E-13, -6.123233995736766085E-15, 50.00000000000000000 ) ) ;
#183 = CONICAL_SURFACE ( 'NONE', #222, 3.000000000000001776, 0.7853981633974453924 ) ;
#184 = LOCAL_TIME ( 8, 8, 15.00000000000000000, #112 ) ;
#185 = DATE_AND_TIME ( #131, #89 ) ;
#186 =( NAMED_UNIT ( * ) PLANE_ANGLE_UNIT ( ) SI_UNIT ( $, .RADIAN. ) );
#187 = CALENDAR_DATE ( 2021, 12, 11 ) ;
#188 = VERTEX_POINT ( 'NONE', #53 ) ;
#189 = AXIS2_PLACEMENT_3D ( 'NONE', #174, #5, #58 ) ;
#190 = APPROVAL_STATUS ( 'not_yet_approved' ) ;
#191 = CC_DESIGN_APPROVAL ( #205, ( #4 ) ) ;
#192 = DIRECTION ( 'NONE',  ( -4.271469831664863477E-31, -1.000000000000000000, -1.223397583181748052E-16 ) ) ;
#193 = ADVANCED_FACE ( 'NONE', ( #156, #22 ), #176, .T. ) ;
#194 = DIRECTION ( 'NONE',  ( 0.0000000000000000000, 1.000000000000000000, 0.0000000000000000000 ) ) ;
#195 = AXIS2_PLACEMENT_3D ( 'NONE', #46, #64, #240 ) ;
#196 = DIRECTION ( 'NONE',  ( 1.000000000000000000, 0.0000000000000000000, -3.487516988161706061E-15 ) ) ;
#197 = EDGE_LOOP ( 'NONE', ( #201 ) ) ;
#198 = PLANE ( 'NONE',  #109 ) ;
#199 = ADVANCED_FACE ( 'NONE', ( #215, #99 ), #79, .T. ) ;
#200 = AXIS2_PLACEMENT_3D ( 'NONE', #66, #224, #196 ) ;
#201 = ORIENTED_EDGE ( 'NONE', *, *, #108, .T. ) ;
#202 = CARTESIAN_POINT ( 'NONE',  ( 2.094888803305879698E-14, -7.340385499090487324E-16, 5.999999999999999112 ) ) ;
#203 = MANIFOLD_SOLID_BREP ( 'Corps-Déplacer/Copier1[1]', #124 ) ;
#204 = ADVANCED_FACE ( 'NONE', ( #175, #40 ), #183, .T. ) ;
#205 = APPROVAL ( #91, 'UNSPECIFIED' ) ;
#206 = APPROVAL_PERSON_ORGANIZATION ( #54, #86, #208 ) ;
#207 = PERSON_AND_ORGANIZATION_ROLE ( 'design_owner' ) ;
#208 = APPROVAL_ROLE ( '' ) ;
#209 = APPROVAL_DATE_TIME ( #185, #97 ) ;
#210 = PERSON_AND_ORGANIZATION ( #84, #167 ) ;
#211 = DIRECTION ( 'NONE',  ( 1.000000000000000000, 0.0000000000000000000, 0.0000000000000000000 ) ) ;
#212 =( GEOMETRIC_REPRESENTATION_CONTEXT ( 3 ) GLOBAL_UNCERTAINTY_ASSIGNED_CONTEXT ( ( #223 ) ) GLOBAL_UNIT_ASSIGNED_CONTEXT ( ( #228, #186, #169 ) ) REPRESENTATION_CONTEXT ( 'NONE', 'WORKASPACE' ) );
#213 = CARTESIAN_POINT ( 'NONE',  ( 3.723207298514677330E-14, -5.705546495484460811E-16, 10.66368952654440960 ) ) ;
#214 = EDGE_CURVE ( 'NONE', #188, #188, #41, .T. ) ;
#215 = FACE_OUTER_BOUND ( 'NONE', #83, .T. ) ;
#216 = DIRECTION ( 'NONE',  ( 3.491481338843133355E-15, -1.223397583181748052E-16, 1.000000000000000000 ) ) ;
#217 = EDGE_LOOP ( 'NONE', ( #61 ) ) ;
#218 = CARTESIAN_POINT ( 'NONE',  ( 0.0000000000000000000, 0.0000000000000000000, 0.0000000000000000000 ) ) ;
#219 = EDGE_LOOP ( 'NONE', ( #45 ) ) ;
#220 = DIRECTION ( 'NONE',  ( 3.491481338843133355E-15, -0.0000000000000000000, 1.000000000000000000 ) ) ;
#221 = DIRECTION ( 'NONE',  ( 1.000000000000000000, 0.0000000000000000000, -3.491481338843133750E-15 ) ) ;
#222 = AXIS2_PLACEMENT_3D ( 'NONE', #157, #117, #194 ) ;
#223 = UNCERTAINTY_MEASURE_WITH_UNIT (LENGTH_MEASURE( 1.000000000000000082E-05 ), #228, 'distance_accuracy_value', 'NONE');
#224 = DIRECTION ( 'NONE',  ( 3.491481338843133355E-15, -0.0000000000000000000, 1.000000000000000000 ) ) ;
#225 = CIRCLE ( 'NONE', #88, 1.399999999999999689 ) ;
#226 = AXIS2_PLACEMENT_3D ( 'NONE', #128, #56, #211 ) ;
#227 = EDGE_CURVE ( 'NONE', #16, #16, #6, .T. ) ;
#228 =( LENGTH_UNIT ( ) NAMED_UNIT ( * ) SI_UNIT ( .MILLI., .METRE. ) );
#229 = DATE_TIME_ROLE ( 'creation_date' ) ;
#230 = ADVANCED_FACE ( 'NONE', ( #119 ), #198, .F. ) ;
#231 = DATE_TIME_ROLE ( 'classification_date' ) ;
#232 = CALENDAR_DATE ( 2021, 12, 11 ) ;
#233 = APPROVAL_DATE_TIME ( #94, #86 ) ;
#234 = TOROIDAL_SURFACE ( 'NONE', #155, 9.500000000000000000, 8.000000000000000000 ) ;
#235 = DIRECTION ( 'NONE',  ( 3.491481338843133355E-15, -1.223397583181748052E-16, 1.000000000000000000 ) ) ;
#236 = DIRECTION ( 'NONE',  ( -3.491481338843133355E-15, 1.224646799147353207E-16, -1.000000000000000000 ) ) ;
#237 = DIRECTION ( 'NONE',  ( -3.491481338843133355E-15, 1.224646799147353207E-16, -1.000000000000000000 ) ) ;
#238 = DIRECTION ( 'NONE',  ( -3.491481338843133355E-15, 1.224646799147353207E-16, -1.000000000000000000 ) ) ;
#239 = EDGE_LOOP ( 'NONE', ( #85 ) ) ;
#240 = DIRECTION ( 'NONE',  ( 4.275831445896958607E-31, 1.000000000000000000, 1.224646799147353207E-16 ) ) ;
#241 = DIRECTION ( 'NONE',  ( 3.491481338843133355E-15, -0.0000000000000000000, 1.000000000000000000 ) ) ;
#242 = AXIS2_PLACEMENT_3D ( 'NONE', #62, #143, #177 ) ;
#243 = DIRECTION ( 'NONE',  ( 0.0000000000000000000, 1.000000000000000000, 0.0000000000000000000 ) ) ;
ENDSEC;
END-ISO-10303-21;
