ISO-10303-21;
HEADER;
FILE_DESCRIPTION (( 'STEP AP203' ),
    '1' );
FILE_NAME ('36304.step',
    '2021-11-12T07:08:15',
    ( '' ),
    ( '' ),
    'SwSTEP 2.0',
    'SolidWorks 2019',
    '' );
FILE_SCHEMA (( 'CONFIG_CONTROL_DESIGN' ));
ENDSEC;

DATA;
#1 = PERSON_AND_ORGANIZATION ( #183, #17 ) ;
#2 = DIRECTION ( 'NONE',  ( 0.0000000000000000000, -1.000000000000000000, 0.0000000000000000000 ) ) ;
#3 = DIRECTION ( 'NONE',  ( -4.332516485465460243E-31, -1.000000000000000000, -1.223397583181748052E-16 ) ) ;
#4 = CIRCLE ( 'NONE', #82, 3.000000000000000888 ) ;
#5 = CLOSED_SHELL ( 'NONE', ( #167, #123, #182, #213, #48 ) ) ;
#6 = CARTESIAN_POINT ( 'NONE',  ( 2.094888803305879382E-14, -7.340385499090486338E-16, 5.999999999999998224 ) ) ;
#7 = CARTESIAN_POINT ( 'NONE',  ( 1.724791781388508004E-13, 2.999999999999995559, 49.39999999999999858 ) ) ;
#8 = AXIS2_PLACEMENT_3D ( 'NONE', #199, #218, #52 ) ;
#9 = ORIENTED_EDGE ( 'NONE', *, *, #96, .T. ) ;
#10 = PRODUCT_RELATED_PRODUCT_CATEGORY ( 'detail', '', ( #160 ) ) ;
#11 = ADVANCED_FACE ( 'NONE', ( #165 ), #32, .T. ) ;
#12 = DIRECTION ( 'NONE',  ( 4.275831445896958607E-31, 1.000000000000000000, 1.224646799147353207E-16 ) ) ;
#13 = FACE_BOUND ( 'NONE', #196, .T. ) ;
#14 = ADVANCED_BREP_SHAPE_REPRESENTATION ( '36304', ( #148, #151, #203 ), #84 ) ;
#15 = ORIENTED_EDGE ( 'NONE', *, *, #78, .F. ) ;
#16 = FACE_OUTER_BOUND ( 'NONE', #65, .T. ) ;
#17 = ORGANIZATION ( 'UNSPECIFIED', 'UNSPECIFIED', '' ) ;
#18 = CC_DESIGN_DATE_AND_TIME_ASSIGNMENT ( #171, #149, ( #60 ) ) ;
#19 = APPROVAL_STATUS ( 'not_yet_approved' ) ;
#20 = PERSON_AND_ORGANIZATION_ROLE ( 'design_owner' ) ;
#21 = PERSON_AND_ORGANIZATION ( #183, #17 ) ;
#22 = FACE_OUTER_BOUND ( 'NONE', #46, .T. ) ;
#23 = VERTEX_POINT ( 'NONE', #42 ) ;
#24 =( LENGTH_UNIT ( ) NAMED_UNIT ( * ) SI_UNIT ( .MILLI., .METRE. ) );
#25 = VERTEX_POINT ( 'NONE', #76 ) ;
#26 = APPROVAL_PERSON_ORGANIZATION ( #170, #150, #188 ) ;
#27 = EDGE_LOOP ( 'NONE', ( #178 ) ) ;
#28 = DIRECTION ( 'NONE',  ( 0.0000000000000000000, 1.000000000000000000, 0.0000000000000000000 ) ) ;
#29 = ORIENTED_EDGE ( 'NONE', *, *, #145, .F. ) ;
#30 = ADVANCED_FACE ( 'NONE', ( #181 ), #122, .T. ) ;
#31 = DIRECTION ( 'NONE',  ( 0.0000000000000000000, 1.000000000000000000, 0.0000000000000000000 ) ) ;
#32 = PLANE ( 'NONE',  #207 ) ;
#33 = SECURITY_CLASSIFICATION_LEVEL ( 'unclassified' ) ;
#34 = APPROVAL_ROLE ( '' ) ;
#35 = APPROVAL_STATUS ( 'not_yet_approved' ) ;
#36 = EDGE_LOOP ( 'NONE', ( #217 ) ) ;
#37 = CALENDAR_DATE ( 2021, 12, 11 ) ;
#38 = DATE_AND_TIME ( #131, #230 ) ;
#39 = DIRECTION ( 'NONE',  ( -4.271469831664863477E-31, -1.000000000000000000, -1.223397583181748298E-16 ) ) ;
#40 = APPROVAL_DATE_TIME ( #168, #55 ) ;
#41 = CARTESIAN_POINT ( 'NONE',  ( 2.094888803305879382E-14, -7.340385499090486338E-16, 5.999999999999998224 ) ) ;
#42 = CARTESIAN_POINT ( 'NONE',  ( 1.745740669421566678E-13, 2.399999999999995914, 50.00000000000000000 ) ) ;
#43 = ADVANCED_FACE ( 'NONE', ( #13, #124 ), #50, .T. ) ;
#44 = DIRECTION ( 'NONE',  ( 3.491481338843133355E-15, -1.223397583181748052E-16, 1.000000000000000000 ) ) ;
#45 = AXIS2_PLACEMENT_3D ( 'NONE', #126, #201, #28 ) ;
#46 = EDGE_LOOP ( 'NONE', ( #232 ) ) ;
#47 = ORIENTED_EDGE ( 'NONE', *, *, #58, .T. ) ;
#48 = ADVANCED_FACE ( 'NONE', ( #241 ), #83, .F. ) ;
#49 = FACE_OUTER_BOUND ( 'NONE', #212, .T. ) ;
#50 = CONICAL_SURFACE ( 'NONE', #80, 1.400000000000000133, 0.7853981633974495002 ) ;
#51 = DESIGN_CONTEXT ( 'detailed design', #154, 'design' ) ;
#52 = DIRECTION ( 'NONE',  ( -4.275831445896958607E-31, -1.000000000000000000, -1.224646799147353207E-16 ) ) ;
#53 = FACE_OUTER_BOUND ( 'NONE', #136, .T. ) ;
#54 = CARTESIAN_POINT ( 'NONE',  ( 3.491481338843133355E-16, 0.0000000000000000000, 0.1000000000000000056 ) ) ;
#55 = APPROVAL ( #19, 'UNSPECIFIED' ) ;
#56 = DIRECTION ( 'NONE',  ( 1.000000000000000000, 0.0000000000000000000, -3.491481338843133355E-15 ) ) ;
#57 = PERSON_AND_ORGANIZATION ( #183, #17 ) ;
#58 = EDGE_CURVE ( 'NONE', #25, #25, #68, .T. ) ;
#59 = PERSON_AND_ORGANIZATION ( #183, #17 ) ;
#60 = SECURITY_CLASSIFICATION ( '', '', #33 ) ;
#61 = CALENDAR_DATE ( 2021, 12, 11 ) ;
#62 = APPLICATION_PROTOCOL_DEFINITION ( 'international standard', 'config_control_design', 1994, #135 ) ;
#63 = CARTESIAN_POINT ( 'NONE',  ( 2.094888803305879382E-14, -1.400000000000001465, 5.999999999999998224 ) ) ;
#64 = ORIENTED_EDGE ( 'NONE', *, *, #96, .F. ) ;
#65 = EDGE_LOOP ( 'NONE', ( #179 ) ) ;
#66 = AXIS2_PLACEMENT_3D ( 'NONE', #101, #216, #200 ) ;
#67 = DIRECTION ( 'NONE',  ( -3.491481338843133355E-15, 1.224646799147353207E-16, -1.000000000000000000 ) ) ;
#68 = CIRCLE ( 'NONE', #121, 1.300000000000000044 ) ;
#69 = CARTESIAN_POINT ( 'NONE',  ( 1.724791781388508004E-13, -6.049755187787925154E-15, 49.39999999999999858 ) ) ;
#70 = DIRECTION ( 'NONE',  ( -3.491481338843133355E-15, 1.224646799147353207E-16, -1.000000000000000000 ) ) ;
#71 = DIRECTION ( 'NONE',  ( 3.491481338843133355E-15, -0.0000000000000000000, 1.000000000000000000 ) ) ;
#72 = AXIS2_PLACEMENT_3D ( 'NONE', #6, #194, #2 ) ;
#73 = APPROVAL_STATUS ( 'not_yet_approved' ) ;
#74 = MECHANICAL_CONTEXT ( 'NONE', #135, 'mechanical' ) ;
#75 = FACE_OUTER_BOUND ( 'NONE', #115, .T. ) ;
#76 = CARTESIAN_POINT ( 'NONE',  ( 1.300000000000000044, 0.0000000000000000000, -4.552478267652142167E-15 ) ) ;
#77 = CYLINDRICAL_SURFACE ( 'NONE', #161, 1.400000000000000577 ) ;
#78 = EDGE_CURVE ( 'NONE', #226, #226, #139, .T. ) ;
#79 =( NAMED_UNIT ( * ) PLANE_ANGLE_UNIT ( ) SI_UNIT ( $, .RADIAN. ) );
#80 = AXIS2_PLACEMENT_3D ( 'NONE', #54, #141, #125 ) ;
#81 = CC_DESIGN_PERSON_AND_ORGANIZATION_ASSIGNMENT ( #242, #20, ( #160 ) ) ;
#82 = AXIS2_PLACEMENT_3D ( 'NONE', #143, #237, #31 ) ;
#83 = PLANE ( 'NONE',  #8 ) ;
#84 =( GEOMETRIC_REPRESENTATION_CONTEXT ( 3 ) GLOBAL_UNCERTAINTY_ASSIGNED_CONTEXT ( ( #236 ) ) GLOBAL_UNIT_ASSIGNED_CONTEXT ( ( #24, #79, #92 ) ) REPRESENTATION_CONTEXT ( 'NONE', 'WORKASPACE' ) );
#85 = FACE_BOUND ( 'NONE', #36, .T. ) ;
#86 = DIRECTION ( 'NONE',  ( 0.0000000000000000000, 1.000000000000000000, 0.0000000000000000000 ) ) ;
#87 = PLANE ( 'NONE',  #180 ) ;
#88 = APPROVAL_DATE_TIME ( #109, #215 ) ;
#89 = COORDINATED_UNIVERSAL_TIME_OFFSET ( 1, 0, .AHEAD. ) ;
#90 = SHAPE_DEFINITION_REPRESENTATION ( #197, #14 ) ;
#91 = DATE_AND_TIME ( #129, #235 ) ;
#92 =( NAMED_UNIT ( * ) SI_UNIT ( $, .STERADIAN. ) SOLID_ANGLE_UNIT ( ) );
#93 = FACE_OUTER_BOUND ( 'NONE', #99, .T. ) ;
#94 = CC_DESIGN_PERSON_AND_ORGANIZATION_ASSIGNMENT ( #108, #208, ( #60 ) ) ;
#95 = CONICAL_SURFACE ( 'NONE', #66, 3.000000000000001776, 0.7853981633974453924 ) ;
#96 = EDGE_CURVE ( 'NONE', #113, #113, #134, .T. ) ;
#97 = DIRECTION ( 'NONE',  ( 0.0000000000000000000, 0.0000000000000000000, 1.000000000000000000 ) ) ;
#98 = ORIENTED_EDGE ( 'NONE', *, *, #219, .T. ) ;
#99 = EDGE_LOOP ( 'NONE', ( #29 ) ) ;
#100 = CC_DESIGN_PERSON_AND_ORGANIZATION_ASSIGNMENT ( #187, #227, ( #128 ) ) ;
#101 = CARTESIAN_POINT ( 'NONE',  ( 1.724791781388508004E-13, -6.049755187787925154E-15, 49.39999999999999858 ) ) ;
#102 = CIRCLE ( 'NONE', #202, 1.400000000000000799 ) ;
#103 = CARTESIAN_POINT ( 'NONE',  ( -4.731839565957903391E-32, 0.0000000000000000000, -1.355252715606880543E-17 ) ) ;
#104 = FACE_OUTER_BOUND ( 'NONE', #238, .T. ) ;
#105 = CARTESIAN_POINT ( 'NONE',  ( 2.094888803305880013E-14, 2.249639673992785317E-32, 6.000000000000000000 ) ) ;
#106 = LOCAL_TIME ( 8, 8, 15.00000000000000000, #222 ) ;
#107 = COORDINATED_UNIVERSAL_TIME_OFFSET ( 1, 0, .AHEAD. ) ;
#108 = PERSON_AND_ORGANIZATION ( #183, #17 ) ;
#109 = DATE_AND_TIME ( #61, #106 ) ;
#110 = APPROVAL_DATE_TIME ( #38, #150 ) ;
#111 = DIRECTION ( 'NONE',  ( 1.000000000000000000, 0.0000000000000000000, 0.0000000000000000000 ) ) ;
#112 = CALENDAR_DATE ( 2021, 12, 11 ) ;
#113 = VERTEX_POINT ( 'NONE', #191 ) ;
#114 = TOROIDAL_SURFACE ( 'NONE', #210, 9.399999999999998579, 8.000000000000000000 ) ;
#115 = EDGE_LOOP ( 'NONE', ( #9 ) ) ;
#116 = CC_DESIGN_SECURITY_CLASSIFICATION ( #60, ( #128 ) ) ;
#117 = ORIENTED_EDGE ( 'NONE', *, *, #145, .T. ) ;
#118 = ORIENTED_EDGE ( 'NONE', *, *, #58, .F. ) ;
#119 = CC_DESIGN_PERSON_AND_ORGANIZATION_ASSIGNMENT ( #59, #155, ( #193 ) ) ;
#120 = APPROVAL_PERSON_ORGANIZATION ( #1, #215, #169 ) ;
#121 = AXIS2_PLACEMENT_3D ( 'NONE', #103, #127, #56 ) ;
#122 = PLANE ( 'NONE',  #239 ) ;
#123 = ADVANCED_FACE ( 'NONE', ( #85, #53 ), #95, .T. ) ;
#124 = FACE_OUTER_BOUND ( 'NONE', #146, .T. ) ;
#125 = DIRECTION ( 'NONE',  ( 1.000000000000000000, 0.0000000000000000000, -3.494615930957741745E-15 ) ) ;
#126 = CARTESIAN_POINT ( 'NONE',  ( 1.745740669421566678E-13, -6.123233995736766085E-15, 50.00000000000000000 ) ) ;
#127 = DIRECTION ( 'NONE',  ( 3.491481338843133355E-15, -0.0000000000000000000, 1.000000000000000000 ) ) ;
#128 = PRODUCT_DEFINITION_FORMATION_WITH_SPECIFIED_SOURCE ( 'ANY', '', #160, .NOT_KNOWN. ) ;
#129 = CALENDAR_DATE ( 2021, 12, 11 ) ;
#130 = COORDINATED_UNIVERSAL_TIME_OFFSET ( 1, 0, .AHEAD. ) ;
#131 = CALENDAR_DATE ( 2021, 12, 11 ) ;
#132 = VERTEX_POINT ( 'NONE', #228 ) ;
#133 = DIRECTION ( 'NONE',  ( 0.0000000000000000000, -1.000000000000000000, 0.0000000000000000000 ) ) ;
#134 = CIRCLE ( 'NONE', #243, 1.400000000000000133 ) ;
#135 = APPLICATION_CONTEXT ( 'configuration controlled 3d designs of mechanical parts and assemblies' ) ;
#136 = EDGE_LOOP ( 'NONE', ( #15 ) ) ;
#137 = ORIENTED_EDGE ( 'NONE', *, *, #205, .F. ) ;
#138 = CC_DESIGN_PERSON_AND_ORGANIZATION_ASSIGNMENT ( #21, #204, ( #128 ) ) ;
#139 = CIRCLE ( 'NONE', #174, 3.000000000000001776 ) ;
#140 = CLOSED_SHELL ( 'NONE', ( #223, #11, #43, #30 ) ) ;
#141 = DIRECTION ( 'NONE',  ( 3.491481338843133355E-15, -0.0000000000000000000, 1.000000000000000000 ) ) ;
#142 = LOCAL_TIME ( 8, 8, 15.00000000000000000, #130 ) ;
#143 = CARTESIAN_POINT ( 'NONE',  ( 3.770799845950584655E-14, -5.872308399272393409E-16, 10.80000000000000071 ) ) ;
#144 = CARTESIAN_POINT ( 'NONE',  ( 3.491481338843133355E-16, 0.0000000000000000000, 0.1000000000000000056 ) ) ;
#145 = EDGE_CURVE ( 'NONE', #132, #132, #4, .T. ) ;
#146 = EDGE_LOOP ( 'NONE', ( #64 ) ) ;
#147 = EDGE_LOOP ( 'NONE', ( #137 ) ) ;
#148 = MANIFOLD_SOLID_BREP ( 'Corps-Déplacer/Copier1[1]', #5 ) ;
#149 = DATE_TIME_ROLE ( 'classification_date' ) ;
#150 = APPROVAL ( #35, 'UNSPECIFIED' ) ;
#151 = MANIFOLD_SOLID_BREP ( 'Corps-Déplacer/Copier1[2]', #140 ) ;
#152 = AXIS2_PLACEMENT_3D ( 'NONE', #240, #70, #186 ) ;
#153 = APPLICATION_PROTOCOL_DEFINITION ( 'international standard', 'config_control_design', 1994, #154 ) ;
#154 = APPLICATION_CONTEXT ( 'configuration controlled 3d designs of mechanical parts and assemblies' ) ;
#155 = PERSON_AND_ORGANIZATION_ROLE ( 'creator' ) ;
#156 = DIRECTION ( 'NONE',  ( 3.491481338843133355E-15, -1.223397583181748052E-16, 1.000000000000000000 ) ) ;
#157 = CARTESIAN_POINT ( 'NONE',  ( 1.745740669421566678E-13, 1.799711739194221740E-32, 50.00000000000000000 ) ) ;
#158 = VERTEX_POINT ( 'NONE', #63 ) ;
#159 = CC_DESIGN_APPROVAL ( #215, ( #193 ) ) ;
#160 = PRODUCT ( '36304', '36304', '', ( #74 ) ) ;
#161 = AXIS2_PLACEMENT_3D ( 'NONE', #192, #44, #39 ) ;
#162 = DIRECTION ( 'NONE',  ( 1.000000000000000000, 0.0000000000000000000, -3.494615930957741745E-15 ) ) ;
#163 = CC_DESIGN_APPROVAL ( #150, ( #128 ) ) ;
#164 = CARTESIAN_POINT ( 'NONE',  ( -6.413747168845438786E-31, 2.249639673992786412E-32, -1.836970198721029934E-16 ) ) ;
#165 = FACE_OUTER_BOUND ( 'NONE', #233, .T. ) ;
#166 = DIRECTION ( 'NONE',  ( -4.275831445896958607E-31, -1.000000000000000000, -1.224646799147353207E-16 ) ) ;
#167 = ADVANCED_FACE ( 'NONE', ( #49, #104 ), #198, .T. ) ;
#168 = DATE_AND_TIME ( #112, #214 ) ;
#169 = APPROVAL_ROLE ( '' ) ;
#170 = PERSON_AND_ORGANIZATION ( #183, #17 ) ;
#171 = DATE_AND_TIME ( #37, #142 ) ;
#172 = EDGE_CURVE ( 'NONE', #23, #23, #234, .T. ) ;
#173 = FACE_OUTER_BOUND ( 'NONE', #27, .T. ) ;
#174 = AXIS2_PLACEMENT_3D ( 'NONE', #69, #67, #86 ) ;
#175 = DIRECTION ( 'NONE',  ( 4.275831445896958607E-31, 1.000000000000000000, 1.224646799147353207E-16 ) ) ;
#176 = CC_DESIGN_DATE_AND_TIME_ASSIGNMENT ( #91, #189, ( #193 ) ) ;
#177 = DIRECTION ( 'NONE',  ( -3.491481338843133355E-15, 1.224646799147353207E-16, -1.000000000000000000 ) ) ;
#178 = ORIENTED_EDGE ( 'NONE', *, *, #205, .T. ) ;
#179 = ORIENTED_EDGE ( 'NONE', *, *, #172, .F. ) ;
#180 = AXIS2_PLACEMENT_3D ( 'NONE', #157, #177, #175 ) ;
#181 = FACE_OUTER_BOUND ( 'NONE', #211, .T. ) ;
#182 = ADVANCED_FACE ( 'NONE', ( #16 ), #87, .F. ) ;
#183 = PERSON ( 'UNSPECIFIED', 'UNSPECIFIED', 'UNSPECIFIED', ('UNSPECIFIED'), ('UNSPECIFIED'), ('UNSPECIFIED') ) ;
#184 = ORIENTED_EDGE ( 'NONE', *, *, #78, .T. ) ;
#185 = DIRECTION ( 'NONE',  ( -3.491481338843133355E-15, 1.224646799147353207E-16, -1.000000000000000000 ) ) ;
#186 = DIRECTION ( 'NONE',  ( 4.275831445896958607E-31, 1.000000000000000000, 1.224646799147353207E-16 ) ) ;
#187 = PERSON_AND_ORGANIZATION ( #183, #17 ) ;
#188 = APPROVAL_ROLE ( '' ) ;
#189 = DATE_TIME_ROLE ( 'creation_date' ) ;
#190 = CARTESIAN_POINT ( 'NONE',  ( 2.094888803305879698E-14, 0.0000000000000000000, 5.999999999999999112 ) ) ;
#191 = CARTESIAN_POINT ( 'NONE',  ( 1.400000000000000577, 0.0000000000000000000, 0.09999999999999510669 ) ) ;
#192 = CARTESIAN_POINT ( 'NONE',  ( 0.0000000000000000000, 0.0000000000000000000, 0.0000000000000000000 ) ) ;
#193 = PRODUCT_DEFINITION ( 'UNKNOWN', '', #128, #51 ) ;
#194 = DIRECTION ( 'NONE',  ( 3.491481338843133355E-15, -1.223397583181748052E-16, 1.000000000000000000 ) ) ;
#195 = APPROVAL_PERSON_ORGANIZATION ( #57, #55, #34 ) ;
#196 = EDGE_LOOP ( 'NONE', ( #47 ) ) ;
#197 = PRODUCT_DEFINITION_SHAPE ( 'NONE', 'NONE',  #193 ) ;
#198 = CYLINDRICAL_SURFACE ( 'NONE', #152, 3.000000000000000888 ) ;
#199 = CARTESIAN_POINT ( 'NONE',  ( 2.094888803305880013E-14, 2.249639673992785317E-32, 6.000000000000000000 ) ) ;
#200 = DIRECTION ( 'NONE',  ( 0.0000000000000000000, 1.000000000000000000, 0.0000000000000000000 ) ) ;
#201 = DIRECTION ( 'NONE',  ( -3.491481338843133355E-15, 1.224646799147353207E-16, -1.000000000000000000 ) ) ;
#202 = AXIS2_PLACEMENT_3D ( 'NONE', #41, #156, #133 ) ;
#203 = AXIS2_PLACEMENT_3D ( 'NONE', #206, #97, #111 ) ;
#204 = PERSON_AND_ORGANIZATION_ROLE ( 'creator' ) ;
#205 = EDGE_CURVE ( 'NONE', #158, #158, #221, .T. ) ;
#206 = CARTESIAN_POINT ( 'NONE',  ( 0.0000000000000000000, 0.0000000000000000000, 0.0000000000000000000 ) ) ;
#207 = AXIS2_PLACEMENT_3D ( 'NONE', #105, #220, #166 ) ;
#208 = PERSON_AND_ORGANIZATION_ROLE ( 'classification_officer' ) ;
#209 = VERTEX_POINT ( 'NONE', #229 ) ;
#210 = AXIS2_PLACEMENT_3D ( 'NONE', #190, #231, #3 ) ;
#211 = EDGE_LOOP ( 'NONE', ( #118 ) ) ;
#212 = EDGE_LOOP ( 'NONE', ( #184 ) ) ;
#213 = ADVANCED_FACE ( 'NONE', ( #93, #173 ), #114, .F. ) ;
#214 = LOCAL_TIME ( 8, 8, 15.00000000000000000, #107 ) ;
#215 = APPROVAL ( #73, 'UNSPECIFIED' ) ;
#216 = DIRECTION ( 'NONE',  ( -3.491481338843133355E-15, 1.224646799147353207E-16, -1.000000000000000000 ) ) ;
#217 = ORIENTED_EDGE ( 'NONE', *, *, #172, .T. ) ;
#218 = DIRECTION ( 'NONE',  ( 3.491481338843133355E-15, -1.224646799147353207E-16, 1.000000000000000000 ) ) ;
#219 = EDGE_CURVE ( 'NONE', #209, #209, #102, .T. ) ;
#220 = DIRECTION ( 'NONE',  ( 3.491481338843133355E-15, -1.224646799147353207E-16, 1.000000000000000000 ) ) ;
#221 = CIRCLE ( 'NONE', #72, 1.400000000000000799 ) ;
#222 = COORDINATED_UNIVERSAL_TIME_OFFSET ( 1, 0, .AHEAD. ) ;
#223 = ADVANCED_FACE ( 'NONE', ( #22, #75 ), #77, .T. ) ;
#224 = CC_DESIGN_APPROVAL ( #55, ( #60 ) ) ;
#225 = COORDINATED_UNIVERSAL_TIME_OFFSET ( 1, 0, .AHEAD. ) ;
#226 = VERTEX_POINT ( 'NONE', #7 ) ;
#227 = PERSON_AND_ORGANIZATION_ROLE ( 'design_supplier' ) ;
#228 = CARTESIAN_POINT ( 'NONE',  ( 3.770799845950584655E-14, 3.000000000000000444, 10.80000000000000071 ) ) ;
#229 = CARTESIAN_POINT ( 'NONE',  ( 2.094888803305879382E-14, -1.400000000000001465, 5.999999999999998224 ) ) ;
#230 = LOCAL_TIME ( 8, 8, 15.00000000000000000, #89 ) ;
#231 = DIRECTION ( 'NONE',  ( 3.491481338843133355E-15, -1.223397583181748052E-16, 1.000000000000000000 ) ) ;
#232 = ORIENTED_EDGE ( 'NONE', *, *, #219, .F. ) ;
#233 = EDGE_LOOP ( 'NONE', ( #98 ) ) ;
#234 = CIRCLE ( 'NONE', #45, 2.400000000000002132 ) ;
#235 = LOCAL_TIME ( 8, 8, 15.00000000000000000, #225 ) ;
#236 = UNCERTAINTY_MEASURE_WITH_UNIT (LENGTH_MEASURE( 1.000000000000000082E-05 ), #24, 'distance_accuracy_value', 'NONE');
#237 = DIRECTION ( 'NONE',  ( 3.491481338843133355E-15, -1.223397583181748052E-16, 1.000000000000000000 ) ) ;
#238 = EDGE_LOOP ( 'NONE', ( #117 ) ) ;
#239 = AXIS2_PLACEMENT_3D ( 'NONE', #164, #185, #12 ) ;
#240 = CARTESIAN_POINT ( 'NONE',  ( 0.0000000000000000000, 0.0000000000000000000, 0.0000000000000000000 ) ) ;
#241 = FACE_OUTER_BOUND ( 'NONE', #147, .T. ) ;
#242 = PERSON_AND_ORGANIZATION ( #183, #17 ) ;
#243 = AXIS2_PLACEMENT_3D ( 'NONE', #144, #71, #162 ) ;
ENDSEC;
END-ISO-10303-21;
