ISO-10303-21;
HEADER;
FILE_DESCRIPTION (( 'STEP AP203' ),
    '1' );
FILE_NAME ('36302.step',
    '2021-11-12T07:08:14',
    ( '' ),
    ( '' ),
    'SwSTEP 2.0',
    'SolidWorks 2019',
    '' );
FILE_SCHEMA (( 'CONFIG_CONTROL_DESIGN' ));
ENDSEC;

DATA;
#1 = ORIENTED_EDGE ( 'NONE', *, *, #10, .F. ) ;
#2 = FACE_OUTER_BOUND ( 'NONE', #158, .T. ) ;
#3 = DIRECTION ( 'NONE',  ( -3.491481338843133355E-15, 1.224646799147353207E-16, -1.000000000000000000 ) ) ;
#4 = ORIENTED_EDGE ( 'NONE', *, *, #75, .F. ) ;
#5 = APPROVAL_DATE_TIME ( #77, #9 ) ;
#6 = CALENDAR_DATE ( 2021, 12, 11 ) ;
#7 = AXIS2_PLACEMENT_3D ( 'NONE', #194, #107, #172 ) ;
#8 = CLOSED_SHELL ( 'NONE', ( #23, #164, #79, #86 ) ) ;
#9 = APPROVAL ( #181, 'UNSPECIFIED' ) ;
#10 = EDGE_CURVE ( 'NONE', #65, #65, #118, .T. ) ;
#11 = LOCAL_TIME ( 8, 8, 14.00000000000000000, #170 ) ;
#12 = PERSON ( 'UNSPECIFIED', 'UNSPECIFIED', 'UNSPECIFIED', ('UNSPECIFIED'), ('UNSPECIFIED'), ('UNSPECIFIED') ) ;
#13 = APPROVAL ( #42, 'UNSPECIFIED' ) ;
#14 = AXIS2_PLACEMENT_3D ( 'NONE', #205, #121, #154 ) ;
#15 = DIRECTION ( 'NONE',  ( -3.491481338843133355E-15, 1.224646799147353207E-16, -1.000000000000000000 ) ) ;
#16 = CALENDAR_DATE ( 2021, 12, 11 ) ;
#17 = PLANE ( 'NONE',  #7 ) ;
#18 = ORIENTED_EDGE ( 'NONE', *, *, #27, .T. ) ;
#19 = VERTEX_POINT ( 'NONE', #88 ) ;
#20 = FACE_BOUND ( 'NONE', #180, .T. ) ;
#21 = CARTESIAN_POINT ( 'NONE',  ( 0.0000000000000000000, 0.0000000000000000000, 0.0000000000000000000 ) ) ;
#22 = ORIENTED_EDGE ( 'NONE', *, *, #75, .T. ) ;
#23 = ADVANCED_FACE ( 'NONE', ( #37, #109 ), #221, .T. ) ;
#24 = PERSON_AND_ORGANIZATION_ROLE ( 'creator' ) ;
#25 = CC_DESIGN_APPROVAL ( #131, ( #167 ) ) ;
#26 = DATE_TIME_ROLE ( 'creation_date' ) ;
#27 = EDGE_CURVE ( 'NONE', #207, #207, #133, .T. ) ;
#28 = ORGANIZATION ( 'UNSPECIFIED', 'UNSPECIFIED', '' ) ;
#29 = COORDINATED_UNIVERSAL_TIME_OFFSET ( 1, 0, .AHEAD. ) ;
#30 = FACE_OUTER_BOUND ( 'NONE', #87, .T. ) ;
#31 = AXIS2_PLACEMENT_3D ( 'NONE', #21, #91, #64 ) ;
#32 = CARTESIAN_POINT ( 'NONE',  ( -4.731839565957903391E-32, 0.0000000000000000000, -1.355252715606880543E-17 ) ) ;
#33 = DIRECTION ( 'NONE',  ( 3.491481338843133355E-15, -1.224646799147353207E-16, 1.000000000000000000 ) ) ;
#34 = PERSON_AND_ORGANIZATION ( #12, #28 ) ;
#35 = CARTESIAN_POINT ( 'NONE',  ( 2.506883601289369875E-13, -8.792964017877996575E-15, 71.79999999999999716 ) ) ;
#36 =( LENGTH_UNIT ( ) NAMED_UNIT ( * ) SI_UNIT ( .MILLI., .METRE. ) );
#37 = FACE_OUTER_BOUND ( 'NONE', #82, .T. ) ;
#38 = EDGE_LOOP ( 'NONE', ( #1 ) ) ;
#39 = PLANE ( 'NONE',  #147 ) ;
#40 = DIRECTION ( 'NONE',  ( 1.000000000000000000, 0.0000000000000000000, 0.0000000000000000000 ) ) ;
#41 = EDGE_CURVE ( 'NONE', #19, #19, #45, .T. ) ;
#42 = APPROVAL_STATUS ( 'not_yet_approved' ) ;
#43 = APPROVAL_ROLE ( '' ) ;
#44 = AXIS2_PLACEMENT_3D ( 'NONE', #197, #125, #40 ) ;
#45 = CIRCLE ( 'NONE', #61, 6.000000000000007105 ) ;
#46 = EDGE_LOOP ( 'NONE', ( #104 ) ) ;
#47 = CALENDAR_DATE ( 2021, 12, 11 ) ;
#48 =( GEOMETRIC_REPRESENTATION_CONTEXT ( 3 ) GLOBAL_UNCERTAINTY_ASSIGNED_CONTEXT ( ( #218 ) ) GLOBAL_UNIT_ASSIGNED_CONTEXT ( ( #36, #67, #159 ) ) REPRESENTATION_CONTEXT ( 'NONE', 'WORKASPACE' ) );
#49 = ORIENTED_EDGE ( 'NONE', *, *, #27, .F. ) ;
#50 = CARTESIAN_POINT ( 'NONE',  ( 6.982962677686266711E-14, 5.999999999999997335, 20.00000000000000000 ) ) ;
#51 = DIRECTION ( 'NONE',  ( -3.491481338843133355E-15, 1.224646799147353207E-16, -1.000000000000000000 ) ) ;
#52 = CARTESIAN_POINT ( 'NONE',  ( 6.000000000000000000, 0.0000000000000000000, 0.09999999999997905009 ) ) ;
#53 = DIRECTION ( 'NONE',  ( 3.491481338843133355E-15, -0.0000000000000000000, 1.000000000000000000 ) ) ;
#54 = CC_DESIGN_DATE_AND_TIME_ASSIGNMENT ( #183, #26, ( #99 ) ) ;
#55 = FACE_OUTER_BOUND ( 'NONE', #46, .T. ) ;
#56 = DIRECTION ( 'NONE',  ( 1.000000000000000000, 0.0000000000000000000, -3.492034497213728733E-15 ) ) ;
#57 = CIRCLE ( 'NONE', #100, 6.000000000000000000 ) ;
#58 = PERSON_AND_ORGANIZATION ( #12, #28 ) ;
#59 = PERSON_AND_ORGANIZATION ( #12, #28 ) ;
#60 = CC_DESIGN_APPROVAL ( #9, ( #120 ) ) ;
#61 = AXIS2_PLACEMENT_3D ( 'NONE', #173, #134, #190 ) ;
#62 = ADVANCED_FACE ( 'NONE', ( #208, #30 ), #163, .T. ) ;
#63 = APPROVAL_STATUS ( 'not_yet_approved' ) ;
#64 = DIRECTION ( 'NONE',  ( 4.275831445896959482E-31, 1.000000000000000000, 1.224646799147353207E-16 ) ) ;
#65 = VERTEX_POINT ( 'NONE', #135 ) ;
#66 = FACE_OUTER_BOUND ( 'NONE', #38, .T. ) ;
#67 =( NAMED_UNIT ( * ) PLANE_ANGLE_UNIT ( ) SI_UNIT ( $, .RADIAN. ) );
#68 = CC_DESIGN_DATE_AND_TIME_ASSIGNMENT ( #102, #156, ( #167 ) ) ;
#69 = ORIENTED_EDGE ( 'NONE', *, *, #187, .F. ) ;
#70 = APPLICATION_CONTEXT ( 'configuration controlled 3d designs of mechanical parts and assemblies' ) ;
#71 = CARTESIAN_POINT ( 'NONE',  ( 2.548781377355487223E-13, 4.799999999999998934, 73.00000000000000000 ) ) ;
#72 = CARTESIAN_POINT ( 'NONE',  ( 3.491481338843133355E-16, 0.0000000000000000000, 0.1000000000000000056 ) ) ;
#73 = ORIENTED_EDGE ( 'NONE', *, *, #41, .F. ) ;
#74 = COORDINATED_UNIVERSAL_TIME_OFFSET ( 1, 0, .AHEAD. ) ;
#75 = EDGE_CURVE ( 'NONE', #155, #155, #149, .T. ) ;
#76 = AXIS2_PLACEMENT_3D ( 'NONE', #128, #3, #103 ) ;
#77 = DATE_AND_TIME ( #6, #201 ) ;
#78 = PRODUCT_RELATED_PRODUCT_CATEGORY ( 'detail', '', ( #220 ) ) ;
#79 = ADVANCED_FACE ( 'NONE', ( #20, #189 ), #202, .T. ) ;
#80 = APPROVAL_PERSON_ORGANIZATION ( #160, #9, #144 ) ;
#81 = AXIS2_PLACEMENT_3D ( 'NONE', #122, #33, #195 ) ;
#82 = EDGE_LOOP ( 'NONE', ( #18 ) ) ;
#83 = PLANE ( 'NONE',  #81 ) ;
#84 = PERSON_AND_ORGANIZATION_ROLE ( 'classification_officer' ) ;
#85 = DIRECTION ( 'NONE',  ( 4.275831445896958607E-31, 1.000000000000000000, 1.224646799147353207E-16 ) ) ;
#86 = ADVANCED_FACE ( 'NONE', ( #66 ), #17, .T. ) ;
#87 = EDGE_LOOP ( 'NONE', ( #73 ) ) ;
#88 = CARTESIAN_POINT ( 'NONE',  ( 2.506883601289369875E-13, 5.999999999999998224, 71.79999999999999716 ) ) ;
#89 = FACE_OUTER_BOUND ( 'NONE', #139, .T. ) ;
#90 = VERTEX_POINT ( 'NONE', #142 ) ;
#91 = DIRECTION ( 'NONE',  ( -3.491481338843133355E-15, 1.224646799147353207E-16, -1.000000000000000000 ) ) ;
#92 = ORIENTED_EDGE ( 'NONE', *, *, #146, .F. ) ;
#93 = EDGE_LOOP ( 'NONE', ( #69 ) ) ;
#94 = PERSON_AND_ORGANIZATION ( #12, #28 ) ;
#95 = CALENDAR_DATE ( 2021, 12, 11 ) ;
#96 = LOCAL_TIME ( 8, 8, 14.00000000000000000, #29 ) ;
#97 = CIRCLE ( 'NONE', #136, 6.000000000000000000 ) ;
#98 = COORDINATED_UNIVERSAL_TIME_OFFSET ( 1, 0, .AHEAD. ) ;
#99 = PRODUCT_DEFINITION ( 'UNKNOWN', '', #120, #185 ) ;
#100 = AXIS2_PLACEMENT_3D ( 'NONE', #212, #153, #223 ) ;
#101 = DIRECTION ( 'NONE',  ( -3.491481338843133355E-15, 1.224646799147353207E-16, -1.000000000000000000 ) ) ;
#102 = DATE_AND_TIME ( #16, #96 ) ;
#103 = DIRECTION ( 'NONE',  ( 0.0000000000000000000, 1.000000000000000000, 0.0000000000000000000 ) ) ;
#104 = ORIENTED_EDGE ( 'NONE', *, *, #41, .T. ) ;
#105 = DIRECTION ( 'NONE',  ( 4.275831445896958607E-31, 1.000000000000000000, 1.224646799147353207E-16 ) ) ;
#106 = APPROVAL_ROLE ( '' ) ;
#107 = DIRECTION ( 'NONE',  ( -3.491481338843133355E-15, 1.224646799147353207E-16, -1.000000000000000000 ) ) ;
#108 = APPLICATION_PROTOCOL_DEFINITION ( 'international standard', 'config_control_design', 1994, #70 ) ;
#109 = FACE_OUTER_BOUND ( 'NONE', #179, .T. ) ;
#110 = EDGE_LOOP ( 'NONE', ( #92 ) ) ;
#111 = DIRECTION ( 'NONE',  ( 3.491481338843133355E-15, -1.224646799147353207E-16, 1.000000000000000000 ) ) ;
#112 = ADVANCED_FACE ( 'NONE', ( #89 ), #157, .F. ) ;
#113 = PERSON_AND_ORGANIZATION_ROLE ( 'design_supplier' ) ;
#114 = DATE_AND_TIME ( #145, #182 ) ;
#115 = CC_DESIGN_SECURITY_CLASSIFICATION ( #167, ( #120 ) ) ;
#116 = CC_DESIGN_PERSON_AND_ORGANIZATION_ASSIGNMENT ( #34, #84, ( #167 ) ) ;
#117 = AXIS2_PLACEMENT_3D ( 'NONE', #127, #15, #105 ) ;
#118 = CIRCLE ( 'NONE', #168, 5.899999999999999467 ) ;
#119 = ORIENTED_EDGE ( 'NONE', *, *, #146, .T. ) ;
#120 = PRODUCT_DEFINITION_FORMATION_WITH_SPECIFIED_SOURCE ( 'ANY', '', #220, .NOT_KNOWN. ) ;
#121 = DIRECTION ( 'NONE',  ( -3.491481338843133355E-15, 1.224646799147353207E-16, -1.000000000000000000 ) ) ;
#122 = CARTESIAN_POINT ( 'NONE',  ( 6.982962677686266711E-14, 4.499279347985568992E-32, 20.00000000000000000 ) ) ;
#123 = SECURITY_CLASSIFICATION_LEVEL ( 'unclassified' ) ;
#124 = DIRECTION ( 'NONE',  ( 3.491481338843133355E-15, -0.0000000000000000000, 1.000000000000000000 ) ) ;
#125 = DIRECTION ( 'NONE',  ( 0.0000000000000000000, 0.0000000000000000000, 1.000000000000000000 ) ) ;
#126 = EDGE_LOOP ( 'NONE', ( #22 ) ) ;
#127 = CARTESIAN_POINT ( 'NONE',  ( 0.0000000000000000000, 0.0000000000000000000, 0.0000000000000000000 ) ) ;
#128 = CARTESIAN_POINT ( 'NONE',  ( 2.548781377355487223E-13, -8.939921633775676859E-15, 73.00000000000000000 ) ) ;
#129 = PERSON_AND_ORGANIZATION_ROLE ( 'creator' ) ;
#130 = APPROVAL_DATE_TIME ( #114, #13 ) ;
#131 = APPROVAL ( #63, 'UNSPECIFIED' ) ;
#132 = CC_DESIGN_APPROVAL ( #13, ( #99 ) ) ;
#133 = CIRCLE ( 'NONE', #14, 6.000000000000000000 ) ;
#134 = DIRECTION ( 'NONE',  ( -3.491481338843133355E-15, 1.224646799147353207E-16, -1.000000000000000000 ) ) ;
#135 = CARTESIAN_POINT ( 'NONE',  ( 5.899999999999999467, 0.0000000000000000000, -2.061329242633055560E-14 ) ) ;
#136 = AXIS2_PLACEMENT_3D ( 'NONE', #174, #101, #222 ) ;
#137 = FACE_OUTER_BOUND ( 'NONE', #209, .T. ) ;
#138 = MECHANICAL_CONTEXT ( 'NONE', #70, 'mechanical' ) ;
#139 = EDGE_LOOP ( 'NONE', ( #4 ) ) ;
#140 = VERTEX_POINT ( 'NONE', #52 ) ;
#141 = DIRECTION ( 'NONE',  ( -3.491481338843133355E-15, 1.224646799147353207E-16, -1.000000000000000000 ) ) ;
#142 = CARTESIAN_POINT ( 'NONE',  ( 6.982962677686266711E-14, 5.999999999999997335, 20.00000000000000000 ) ) ;
#143 = ORIENTED_EDGE ( 'NONE', *, *, #187, .T. ) ;
#144 = APPROVAL_ROLE ( '' ) ;
#145 = CALENDAR_DATE ( 2021, 12, 11 ) ;
#146 = EDGE_CURVE ( 'NONE', #140, #140, #57, .T. ) ;
#147 = AXIS2_PLACEMENT_3D ( 'NONE', #192, #111, #151 ) ;
#148 = CC_DESIGN_PERSON_AND_ORGANIZATION_ASSIGNMENT ( #214, #129, ( #120 ) ) ;
#149 = CIRCLE ( 'NONE', #76, 4.800000000000007816 ) ;
#150 = DIRECTION ( 'NONE',  ( 1.000000000000000000, 0.0000000000000000000, -3.491481338843133750E-15 ) ) ;
#151 = DIRECTION ( 'NONE',  ( -4.275831445896958607E-31, -1.000000000000000000, -1.224646799147353207E-16 ) ) ;
#152 = SHAPE_DEFINITION_REPRESENTATION ( #210, #171 ) ;
#153 = DIRECTION ( 'NONE',  ( 3.491481338843133355E-15, -0.0000000000000000000, 1.000000000000000000 ) ) ;
#154 = DIRECTION ( 'NONE',  ( 0.0000000000000000000, 1.000000000000000000, 0.0000000000000000000 ) ) ;
#155 = VERTEX_POINT ( 'NONE', #71 ) ;
#156 = DATE_TIME_ROLE ( 'classification_date' ) ;
#157 = PLANE ( 'NONE',  #198 ) ;
#158 = EDGE_LOOP ( 'NONE', ( #143 ) ) ;
#159 =( NAMED_UNIT ( * ) SI_UNIT ( $, .STERADIAN. ) SOLID_ANGLE_UNIT ( ) );
#160 = PERSON_AND_ORGANIZATION ( #12, #28 ) ;
#161 = LOCAL_TIME ( 8, 8, 14.00000000000000000, #98 ) ;
#162 = COORDINATED_UNIVERSAL_TIME_OFFSET ( 1, 0, .AHEAD. ) ;
#163 = CONICAL_SURFACE ( 'NONE', #184, 6.000000000000007105, 0.7853981633974511656 ) ;
#164 = ADVANCED_FACE ( 'NONE', ( #137 ), #83, .T. ) ;
#165 = CC_DESIGN_PERSON_AND_ORGANIZATION_ASSIGNMENT ( #199, #113, ( #120 ) ) ;
#166 = ADVANCED_FACE ( 'NONE', ( #55, #169 ), #211, .T. ) ;
#167 = SECURITY_CLASSIFICATION ( '', '', #123 ) ;
#168 = AXIS2_PLACEMENT_3D ( 'NONE', #32, #53, #150 ) ;
#169 = FACE_OUTER_BOUND ( 'NONE', #93, .T. ) ;
#170 = COORDINATED_UNIVERSAL_TIME_OFFSET ( 1, 0, .AHEAD. ) ;
#171 = ADVANCED_BREP_SHAPE_REPRESENTATION ( '36302', ( #175, #178, #44 ), #48 ) ;
#172 = DIRECTION ( 'NONE',  ( 4.275831445896958607E-31, 1.000000000000000000, 1.224646799147353207E-16 ) ) ;
#173 = CARTESIAN_POINT ( 'NONE',  ( 2.506883601289369875E-13, -8.792964017877996575E-15, 71.79999999999999716 ) ) ;
#174 = CARTESIAN_POINT ( 'NONE',  ( 6.982962677686266711E-14, -2.449293598294706513E-15, 20.00000000000000000 ) ) ;
#175 = MANIFOLD_SOLID_BREP ( 'Corps-Déplacer/Copier1[1]', #203 ) ;
#176 = APPROVAL_DATE_TIME ( #188, #131 ) ;
#177 = DIRECTION ( 'NONE',  ( 0.0000000000000000000, 1.000000000000000000, 0.0000000000000000000 ) ) ;
#178 = MANIFOLD_SOLID_BREP ( 'Corps-Déplacer/Copier1[2]', #8 ) ;
#179 = EDGE_LOOP ( 'NONE', ( #119 ) ) ;
#180 = EDGE_LOOP ( 'NONE', ( #186 ) ) ;
#181 = APPROVAL_STATUS ( 'not_yet_approved' ) ;
#182 = LOCAL_TIME ( 8, 8, 14.00000000000000000, #74 ) ;
#183 = DATE_AND_TIME ( #95, #161 ) ;
#184 = AXIS2_PLACEMENT_3D ( 'NONE', #35, #51, #177 ) ;
#185 = DESIGN_CONTEXT ( 'detailed design', #216, 'design' ) ;
#186 = ORIENTED_EDGE ( 'NONE', *, *, #10, .T. ) ;
#187 = EDGE_CURVE ( 'NONE', #90, #90, #97, .T. ) ;
#188 = DATE_AND_TIME ( #47, #11 ) ;
#189 = FACE_OUTER_BOUND ( 'NONE', #110, .T. ) ;
#190 = DIRECTION ( 'NONE',  ( 0.0000000000000000000, 1.000000000000000000, 0.0000000000000000000 ) ) ;
#191 = CC_DESIGN_PERSON_AND_ORGANIZATION_ASSIGNMENT ( #58, #200, ( #220 ) ) ;
#192 = CARTESIAN_POINT ( 'NONE',  ( 6.982962677686266711E-14, 4.499279347985568992E-32, 20.00000000000000000 ) ) ;
#193 = PERSON_AND_ORGANIZATION ( #12, #28 ) ;
#194 = CARTESIAN_POINT ( 'NONE',  ( -1.282749433769087757E-30, 4.499279347985572824E-32, -3.673940397442059868E-16 ) ) ;
#195 = DIRECTION ( 'NONE',  ( -4.275831445896958607E-31, -1.000000000000000000, -1.224646799147353207E-16 ) ) ;
#196 = CARTESIAN_POINT ( 'NONE',  ( 2.548781377355487223E-13, 3.599423478388451143E-32, 73.00000000000000000 ) ) ;
#197 = CARTESIAN_POINT ( 'NONE',  ( 0.0000000000000000000, 0.0000000000000000000, 0.0000000000000000000 ) ) ;
#198 = AXIS2_PLACEMENT_3D ( 'NONE', #196, #141, #85 ) ;
#199 = PERSON_AND_ORGANIZATION ( #12, #28 ) ;
#200 = PERSON_AND_ORGANIZATION_ROLE ( 'design_owner' ) ;
#201 = LOCAL_TIME ( 8, 8, 14.00000000000000000, #162 ) ;
#202 = CONICAL_SURFACE ( 'NONE', #215, 6.000000000000000000, 0.7853981633974495002 ) ;
#203 = CLOSED_SHELL ( 'NONE', ( #213, #166, #62, #112 ) ) ;
#204 = CC_DESIGN_PERSON_AND_ORGANIZATION_ASSIGNMENT ( #94, #24, ( #99 ) ) ;
#205 = CARTESIAN_POINT ( 'NONE',  ( 6.982962677686266711E-14, -2.449293598294706513E-15, 20.00000000000000000 ) ) ;
#206 = APPROVAL_PERSON_ORGANIZATION ( #59, #13, #43 ) ;
#207 = VERTEX_POINT ( 'NONE', #50 ) ;
#208 = FACE_BOUND ( 'NONE', #126, .T. ) ;
#209 = EDGE_LOOP ( 'NONE', ( #49 ) ) ;
#210 = PRODUCT_DEFINITION_SHAPE ( 'NONE', 'NONE',  #99 ) ;
#211 = CYLINDRICAL_SURFACE ( 'NONE', #117, 6.000000000000003553 ) ;
#212 = CARTESIAN_POINT ( 'NONE',  ( 3.491481338843133355E-16, 0.0000000000000000000, 0.1000000000000000056 ) ) ;
#213 = ADVANCED_FACE ( 'NONE', ( #2 ), #39, .F. ) ;
#214 = PERSON_AND_ORGANIZATION ( #12, #28 ) ;
#215 = AXIS2_PLACEMENT_3D ( 'NONE', #72, #124, #56 ) ;
#216 = APPLICATION_CONTEXT ( 'configuration controlled 3d designs of mechanical parts and assemblies' ) ;
#217 = APPLICATION_PROTOCOL_DEFINITION ( 'international standard', 'config_control_design', 1994, #216 ) ;
#218 = UNCERTAINTY_MEASURE_WITH_UNIT (LENGTH_MEASURE( 1.000000000000000082E-05 ), #36, 'distance_accuracy_value', 'NONE');
#219 = APPROVAL_PERSON_ORGANIZATION ( #193, #131, #106 ) ;
#220 = PRODUCT ( '36302', '36302', '', ( #138 ) ) ;
#221 = CYLINDRICAL_SURFACE ( 'NONE', #31, 6.000000000000000000 ) ;
#222 = DIRECTION ( 'NONE',  ( 0.0000000000000000000, 1.000000000000000000, 0.0000000000000000000 ) ) ;
#223 = DIRECTION ( 'NONE',  ( 1.000000000000000000, 0.0000000000000000000, -3.492034497213728733E-15 ) ) ;
ENDSEC;
END-ISO-10303-21;
