ISO-10303-21;
HEADER;
FILE_DESCRIPTION (( 'STEP AP203' ),
    '1' );
FILE_NAME ('36300.step',
    '2021-11-12T07:08:14',
    ( '' ),
    ( '' ),
    'SwSTEP 2.0',
    'SolidWorks 2019',
    '' );
FILE_SCHEMA (( 'CONFIG_CONTROL_DESIGN' ));
ENDSEC;

DATA;
#1 = EDGE_LOOP ( 'NONE', ( #25 ) ) ;
#2 = EDGE_CURVE ( 'NONE', #181, #181, #217, .T. ) ;
#3 = FACE_OUTER_BOUND ( 'NONE', #9, .T. ) ;
#4 = DIRECTION ( 'NONE',  ( -3.491481338843133355E-15, 1.224646799147353207E-16, -1.000000000000000000 ) ) ;
#5 = CC_DESIGN_DATE_AND_TIME_ASSIGNMENT ( #184, #95, ( #54 ) ) ;
#6 = DIRECTION ( 'NONE',  ( -3.491481338843133355E-15, 1.224646799147353207E-16, -1.000000000000000000 ) ) ;
#7 = CARTESIAN_POINT ( 'NONE',  ( -4.731839565957903391E-32, 0.0000000000000000000, -1.355252715606880543E-17 ) ) ;
#8 = EDGE_CURVE ( 'NONE', #178, #178, #179, .T. ) ;
#9 = EDGE_LOOP ( 'NONE', ( #209 ) ) ;
#10 = AXIS2_PLACEMENT_3D ( 'NONE', #86, #47, #144 ) ;
#11 = CARTESIAN_POINT ( 'NONE',  ( 3.899999999999999911, 0.0000000000000000000, -1.363032974864428889E-14 ) ) ;
#12 = CC_DESIGN_APPROVAL ( #182, ( #55 ) ) ;
#13 = FACE_OUTER_BOUND ( 'NONE', #96, .T. ) ;
#14 = CARTESIAN_POINT ( 'NONE',  ( 3.491481338843133355E-16, 0.0000000000000000000, 0.1000000000000000056 ) ) ;
#15 = DESIGN_CONTEXT ( 'detailed design', #223, 'design' ) ;
#16 = APPROVAL ( #43, 'UNSPECIFIED' ) ;
#17 = CARTESIAN_POINT ( 'NONE',  ( 2.066956952595134694E-13, -7.249909050952328344E-15, 59.19999999999998863 ) ) ;
#18 = DIRECTION ( 'NONE',  ( 1.000000000000000000, 0.0000000000000000000, -3.493163874476734598E-15 ) ) ;
#19 = PERSON_AND_ORGANIZATION ( #110, #174 ) ;
#20 = APPROVAL_DATE_TIME ( #216, #16 ) ;
#21 = ADVANCED_FACE ( 'NONE', ( #3 ), #141, .F. ) ;
#22 = SECURITY_CLASSIFICATION_LEVEL ( 'unclassified' ) ;
#23 = CONICAL_SURFACE ( 'NONE', #161, 3.999999999999993339, 0.7853981633974458365 ) ;
#24 = APPROVAL_PERSON_ORGANIZATION ( #132, #182, #75 ) ;
#25 = ORIENTED_EDGE ( 'NONE', *, *, #116, .T. ) ;
#26 = DIRECTION ( 'NONE',  ( -3.491481338843133355E-15, 1.224646799147353207E-16, -1.000000000000000000 ) ) ;
#27 = DIRECTION ( 'NONE',  ( 1.000000000000000000, 0.0000000000000000000, -3.491481338843133355E-15 ) ) ;
#28 = PLANE ( 'NONE',  #143 ) ;
#29 = DIRECTION ( 'NONE',  ( 4.275831445896958607E-31, 1.000000000000000000, 1.224646799147353207E-16 ) ) ;
#30 = AXIS2_PLACEMENT_3D ( 'NONE', #48, #176, #157 ) ;
#31 =( LENGTH_UNIT ( ) NAMED_UNIT ( * ) SI_UNIT ( .MILLI., .METRE. ) );
#32 = CC_DESIGN_DATE_AND_TIME_ASSIGNMENT ( #61, #40, ( #55 ) ) ;
#33 = APPLICATION_PROTOCOL_DEFINITION ( 'international standard', 'config_control_design', 1994, #149 ) ;
#34 = UNCERTAINTY_MEASURE_WITH_UNIT (LENGTH_MEASURE( 1.000000000000000082E-05 ), #31, 'distance_accuracy_value', 'NONE');
#35 = DIRECTION ( 'NONE',  ( 0.0000000000000000000, 0.0000000000000000000, 1.000000000000000000 ) ) ;
#36 = PRODUCT_DEFINITION_SHAPE ( 'NONE', 'NONE',  #54 ) ;
#37 = CALENDAR_DATE ( 2021, 12, 11 ) ;
#38 = PERSON_AND_ORGANIZATION ( #110, #174 ) ;
#39 = CC_DESIGN_PERSON_AND_ORGANIZATION_ASSIGNMENT ( #19, #93, ( #198 ) ) ;
#40 = DATE_TIME_ROLE ( 'classification_date' ) ;
#41 = EDGE_LOOP ( 'NONE', ( #193 ) ) ;
#42 = CC_DESIGN_APPROVAL ( #16, ( #208 ) ) ;
#43 = APPROVAL_STATUS ( 'not_yet_approved' ) ;
#44 = DIRECTION ( 'NONE',  ( 4.275831445896958607E-31, 1.000000000000000000, 1.224646799147353207E-16 ) ) ;
#45 = CC_DESIGN_APPROVAL ( #79, ( #54 ) ) ;
#46 = CC_DESIGN_PERSON_AND_ORGANIZATION_ASSIGNMENT ( #78, #109, ( #208 ) ) ;
#47 = DIRECTION ( 'NONE',  ( -3.491481338843133355E-15, 1.224646799147353207E-16, -1.000000000000000000 ) ) ;
#48 = CARTESIAN_POINT ( 'NONE',  ( 5.237222008264700033E-14, 2.999519565323712479E-32, 15.00000000000000000 ) ) ;
#49 = CYLINDRICAL_SURFACE ( 'NONE', #64, 3.999999999999996447 ) ;
#50 = DIRECTION ( 'NONE',  ( -3.491481338843133355E-15, 1.224646799147353207E-16, -1.000000000000000000 ) ) ;
#51 = ADVANCED_BREP_SHAPE_REPRESENTATION ( '36300', ( #131, #62, #76 ), #94 ) ;
#52 = FACE_OUTER_BOUND ( 'NONE', #117, .T. ) ;
#53 = CYLINDRICAL_SURFACE ( 'NONE', #105, 4.000000000000000000 ) ;
#54 = PRODUCT_DEFINITION ( 'UNKNOWN', '', #208, #15 ) ;
#55 = SECURITY_CLASSIFICATION ( '', '', #22 ) ;
#56 = CARTESIAN_POINT ( 'NONE',  ( 2.094888803305879508E-13, 3.199999999999994404, 59.99999999999998579 ) ) ;
#57 = PERSON_AND_ORGANIZATION ( #110, #174 ) ;
#58 = LOCAL_TIME ( 8, 8, 14.00000000000000000, #126 ) ;
#59 = CC_DESIGN_PERSON_AND_ORGANIZATION_ASSIGNMENT ( #77, #125, ( #208 ) ) ;
#60 = ORIENTED_EDGE ( 'NONE', *, *, #221, .T. ) ;
#61 = DATE_AND_TIME ( #104, #101 ) ;
#62 = MANIFOLD_SOLID_BREP ( 'Corps-Déplacer/Copier1[2]', #111 ) ;
#63 = EDGE_LOOP ( 'NONE', ( #205 ) ) ;
#64 = AXIS2_PLACEMENT_3D ( 'NONE', #177, #191, #115 ) ;
#65 = FACE_OUTER_BOUND ( 'NONE', #63, .T. ) ;
#66 = ADVANCED_FACE ( 'NONE', ( #114, #175 ), #23, .T. ) ;
#67 = EDGE_LOOP ( 'NONE', ( #135 ) ) ;
#68 = FACE_OUTER_BOUND ( 'NONE', #159, .T. ) ;
#69 = CARTESIAN_POINT ( 'NONE',  ( 5.237222008264700033E-14, 3.999999999999998224, 15.00000000000000000 ) ) ;
#70 = CARTESIAN_POINT ( 'NONE',  ( 5.237222008264700033E-14, 3.999999999999998224, 15.00000000000000000 ) ) ;
#71 = CARTESIAN_POINT ( 'NONE',  ( 2.066956952595134694E-13, 3.999999999999986233, 59.19999999999998863 ) ) ;
#72 = FACE_OUTER_BOUND ( 'NONE', #1, .T. ) ;
#73 = CALENDAR_DATE ( 2021, 12, 11 ) ;
#74 = CLOSED_SHELL ( 'NONE', ( #155, #108, #66, #21 ) ) ;
#75 = APPROVAL_ROLE ( '' ) ;
#76 = AXIS2_PLACEMENT_3D ( 'NONE', #89, #35, #171 ) ;
#77 = PERSON_AND_ORGANIZATION ( #110, #174 ) ;
#78 = PERSON_AND_ORGANIZATION ( #110, #174 ) ;
#79 = APPROVAL ( #150, 'UNSPECIFIED' ) ;
#80 = EDGE_LOOP ( 'NONE', ( #127 ) ) ;
#81 = CARTESIAN_POINT ( 'NONE',  ( 2.066956952595134694E-13, -7.249909050952328344E-15, 59.19999999999998863 ) ) ;
#82 = CIRCLE ( 'NONE', #92, 3.999999999999993339 ) ;
#83 = LOCAL_TIME ( 8, 8, 14.00000000000000000, #218 ) ;
#84 = DIRECTION ( 'NONE',  ( 0.0000000000000000000, 1.000000000000000000, 0.0000000000000000000 ) ) ;
#85 = ADVANCED_FACE ( 'NONE', ( #207 ), #99, .T. ) ;
#86 = CARTESIAN_POINT ( 'NONE',  ( 2.094888803305879508E-13, -7.347880794884116778E-15, 59.99999999999998579 ) ) ;
#87 = CARTESIAN_POINT ( 'NONE',  ( 0.0000000000000000000, 0.0000000000000000000, 0.0000000000000000000 ) ) ;
#88 = DIRECTION ( 'NONE',  ( -3.491481338843133355E-15, 1.224646799147353207E-16, -1.000000000000000000 ) ) ;
#89 = CARTESIAN_POINT ( 'NONE',  ( 0.0000000000000000000, 0.0000000000000000000, 0.0000000000000000000 ) ) ;
#90 = FACE_BOUND ( 'NONE', #80, .T. ) ;
#91 = COORDINATED_UNIVERSAL_TIME_OFFSET ( 1, 0, .AHEAD. ) ;
#92 = AXIS2_PLACEMENT_3D ( 'NONE', #17, #215, #163 ) ;
#93 = PERSON_AND_ORGANIZATION_ROLE ( 'design_owner' ) ;
#94 =( GEOMETRIC_REPRESENTATION_CONTEXT ( 3 ) GLOBAL_UNCERTAINTY_ASSIGNED_CONTEXT ( ( #34 ) ) GLOBAL_UNIT_ASSIGNED_CONTEXT ( ( #31, #197, #180 ) ) REPRESENTATION_CONTEXT ( 'NONE', 'WORKASPACE' ) );
#95 = DATE_TIME_ROLE ( 'creation_date' ) ;
#96 = EDGE_LOOP ( 'NONE', ( #60 ) ) ;
#97 = DIRECTION ( 'NONE',  ( -3.491481338843133355E-15, 1.224646799147353207E-16, -1.000000000000000000 ) ) ;
#98 = ADVANCED_FACE ( 'NONE', ( #65 ), #28, .T. ) ;
#99 = PLANE ( 'NONE',  #30 ) ;
#100 = CARTESIAN_POINT ( 'NONE',  ( 5.237222008264700033E-14, -1.836970198721029589E-15, 15.00000000000000000 ) ) ;
#101 = LOCAL_TIME ( 8, 8, 14.00000000000000000, #138 ) ;
#102 = VERTEX_POINT ( 'NONE', #70 ) ;
#103 = CARTESIAN_POINT ( 'NONE',  ( 4.000000000000000000, 0.0000000000000000000, 0.09999999999998603062 ) ) ;
#104 = CALENDAR_DATE ( 2021, 12, 11 ) ;
#105 = AXIS2_PLACEMENT_3D ( 'NONE', #87, #88, #29 ) ;
#106 = EDGE_LOOP ( 'NONE', ( #153 ) ) ;
#107 = CC_DESIGN_SECURITY_CLASSIFICATION ( #55, ( #208 ) ) ;
#108 = ADVANCED_FACE ( 'NONE', ( #173, #68 ), #49, .T. ) ;
#109 = PERSON_AND_ORGANIZATION_ROLE ( 'design_supplier' ) ;
#110 = PERSON ( 'UNSPECIFIED', 'UNSPECIFIED', 'UNSPECIFIED', ('UNSPECIFIED'), ('UNSPECIFIED'), ('UNSPECIFIED') ) ;
#111 = CLOSED_SHELL ( 'NONE', ( #189, #85, #199, #98 ) ) ;
#112 = CARTESIAN_POINT ( 'NONE',  ( 2.094888803305879761E-13, 8.737655774268964850E-31, 59.99999999999999289 ) ) ;
#113 = LOCAL_TIME ( 8, 8, 14.00000000000000000, #136 ) ;
#114 = FACE_BOUND ( 'NONE', #41, .T. ) ;
#115 = DIRECTION ( 'NONE',  ( 4.275831445896957731E-31, 1.000000000000000000, 1.224646799147353207E-16 ) ) ;
#116 = EDGE_CURVE ( 'NONE', #147, #147, #151, .T. ) ;
#117 = EDGE_LOOP ( 'NONE', ( #219 ) ) ;
#118 = CARTESIAN_POINT ( 'NONE',  ( -8.551662891793915461E-31, 2.999519565323715216E-32, -2.449293598294706414E-16 ) ) ;
#119 = DIRECTION ( 'NONE',  ( 3.491481338843133355E-15, -1.224646799147353207E-16, 1.000000000000000000 ) ) ;
#120 = EDGE_CURVE ( 'NONE', #102, #102, #167, .T. ) ;
#121 = CIRCLE ( 'NONE', #172, 4.000000000000000000 ) ;
#122 = DIRECTION ( 'NONE',  ( 3.491481338843133355E-15, -0.0000000000000000000, 1.000000000000000000 ) ) ;
#123 = PRODUCT_RELATED_PRODUCT_CATEGORY ( 'detail', '', ( #198 ) ) ;
#124 = AXIS2_PLACEMENT_3D ( 'NONE', #195, #119, #212 ) ;
#125 = PERSON_AND_ORGANIZATION_ROLE ( 'creator' ) ;
#126 = COORDINATED_UNIVERSAL_TIME_OFFSET ( 1, 0, .AHEAD. ) ;
#127 = ORIENTED_EDGE ( 'NONE', *, *, #2, .T. ) ;
#128 = EDGE_CURVE ( 'NONE', #146, #146, #82, .T. ) ;
#129 = EDGE_LOOP ( 'NONE', ( #202 ) ) ;
#130 = AXIS2_PLACEMENT_3D ( 'NONE', #7, #192, #27 ) ;
#131 = MANIFOLD_SOLID_BREP ( 'Corps-Déplacer/Copier1[1]', #74 ) ;
#132 = PERSON_AND_ORGANIZATION ( #110, #174 ) ;
#133 = AXIS2_PLACEMENT_3D ( 'NONE', #112, #97, #210 ) ;
#134 = SHAPE_DEFINITION_REPRESENTATION ( #36, #51 ) ;
#135 = ORIENTED_EDGE ( 'NONE', *, *, #128, .F. ) ;
#136 = COORDINATED_UNIVERSAL_TIME_OFFSET ( 1, 0, .AHEAD. ) ;
#137 = ORIENTED_EDGE ( 'NONE', *, *, #116, .F. ) ;
#138 = COORDINATED_UNIVERSAL_TIME_OFFSET ( 1, 0, .AHEAD. ) ;
#139 = PERSON_AND_ORGANIZATION_ROLE ( 'creator' ) ;
#140 = CC_DESIGN_PERSON_AND_ORGANIZATION_ASSIGNMENT ( #57, #139, ( #54 ) ) ;
#141 = PLANE ( 'NONE',  #133 ) ;
#142 = CARTESIAN_POINT ( 'NONE',  ( 5.237222008264700033E-14, -1.836970198721029589E-15, 15.00000000000000000 ) ) ;
#143 = AXIS2_PLACEMENT_3D ( 'NONE', #118, #4, #44 ) ;
#144 = DIRECTION ( 'NONE',  ( 0.0000000000000000000, 1.000000000000000000, 0.0000000000000000000 ) ) ;
#145 = DIRECTION ( 'NONE',  ( 3.491481338843133355E-15, -0.0000000000000000000, 1.000000000000000000 ) ) ;
#146 = VERTEX_POINT ( 'NONE', #71 ) ;
#147 = VERTEX_POINT ( 'NONE', #69 ) ;
#148 = PERSON_AND_ORGANIZATION_ROLE ( 'classification_officer' ) ;
#149 = APPLICATION_CONTEXT ( 'configuration controlled 3d designs of mechanical parts and assemblies' ) ;
#150 = APPROVAL_STATUS ( 'not_yet_approved' ) ;
#151 = CIRCLE ( 'NONE', #211, 4.000000000000000000 ) ;
#152 = CALENDAR_DATE ( 2021, 12, 11 ) ;
#153 = ORIENTED_EDGE ( 'NONE', *, *, #120, .F. ) ;
#154 = APPROVAL_ROLE ( '' ) ;
#155 = ADVANCED_FACE ( 'NONE', ( #72 ), #194, .F. ) ;
#156 = AXIS2_PLACEMENT_3D ( 'NONE', #164, #122, #162 ) ;
#157 = DIRECTION ( 'NONE',  ( -4.275831445896958607E-31, -1.000000000000000000, -1.224646799147353207E-16 ) ) ;
#158 = APPROVAL_PERSON_ORGANIZATION ( #204, #79, #200 ) ;
#159 = EDGE_LOOP ( 'NONE', ( #137 ) ) ;
#160 = ORIENTED_EDGE ( 'NONE', *, *, #221, .F. ) ;
#161 = AXIS2_PLACEMENT_3D ( 'NONE', #81, #26, #188 ) ;
#162 = DIRECTION ( 'NONE',  ( 1.000000000000000000, 0.0000000000000000000, -3.493163874476734598E-15 ) ) ;
#163 = DIRECTION ( 'NONE',  ( 0.0000000000000000000, 1.000000000000000000, 0.0000000000000000000 ) ) ;
#164 = CARTESIAN_POINT ( 'NONE',  ( 3.491481338843133355E-16, 0.0000000000000000000, 0.1000000000000000056 ) ) ;
#165 = VERTEX_POINT ( 'NONE', #103 ) ;
#166 = APPLICATION_PROTOCOL_DEFINITION ( 'international standard', 'config_control_design', 1994, #223 ) ;
#167 = CIRCLE ( 'NONE', #196, 4.000000000000000000 ) ;
#168 = APPROVAL_DATE_TIME ( #203, #182 ) ;
#169 = LOCAL_TIME ( 8, 8, 14.00000000000000000, #91 ) ;
#170 = CC_DESIGN_PERSON_AND_ORGANIZATION_ASSIGNMENT ( #38, #148, ( #55 ) ) ;
#171 = DIRECTION ( 'NONE',  ( 1.000000000000000000, 0.0000000000000000000, 0.0000000000000000000 ) ) ;
#172 = AXIS2_PLACEMENT_3D ( 'NONE', #14, #145, #18 ) ;
#173 = FACE_OUTER_BOUND ( 'NONE', #129, .T. ) ;
#174 = ORGANIZATION ( 'UNSPECIFIED', 'UNSPECIFIED', '' ) ;
#175 = FACE_OUTER_BOUND ( 'NONE', #67, .T. ) ;
#176 = DIRECTION ( 'NONE',  ( 3.491481338843133355E-15, -1.224646799147353207E-16, 1.000000000000000000 ) ) ;
#177 = CARTESIAN_POINT ( 'NONE',  ( 0.0000000000000000000, 0.0000000000000000000, 0.0000000000000000000 ) ) ;
#178 = VERTEX_POINT ( 'NONE', #56 ) ;
#179 = CIRCLE ( 'NONE', #10, 3.200000000000001954 ) ;
#180 =( NAMED_UNIT ( * ) SI_UNIT ( $, .STERADIAN. ) SOLID_ANGLE_UNIT ( ) );
#181 = VERTEX_POINT ( 'NONE', #11 ) ;
#182 = APPROVAL ( #183, 'UNSPECIFIED' ) ;
#183 = APPROVAL_STATUS ( 'not_yet_approved' ) ;
#184 = DATE_AND_TIME ( #220, #83 ) ;
#185 = PERSON_AND_ORGANIZATION ( #110, #174 ) ;
#186 = DATE_AND_TIME ( #152, #169 ) ;
#187 = APPROVAL_PERSON_ORGANIZATION ( #185, #16, #154 ) ;
#188 = DIRECTION ( 'NONE',  ( 0.0000000000000000000, 1.000000000000000000, 0.0000000000000000000 ) ) ;
#189 = ADVANCED_FACE ( 'NONE', ( #52, #13 ), #53, .T. ) ;
#190 = EDGE_LOOP ( 'NONE', ( #160 ) ) ;
#191 = DIRECTION ( 'NONE',  ( -3.491481338843133355E-15, 1.224646799147353207E-16, -1.000000000000000000 ) ) ;
#192 = DIRECTION ( 'NONE',  ( 3.491481338843133355E-15, -0.0000000000000000000, 1.000000000000000000 ) ) ;
#193 = ORIENTED_EDGE ( 'NONE', *, *, #8, .T. ) ;
#194 = PLANE ( 'NONE',  #124 ) ;
#195 = CARTESIAN_POINT ( 'NONE',  ( 5.237222008264700033E-14, 2.999519565323712479E-32, 15.00000000000000000 ) ) ;
#196 = AXIS2_PLACEMENT_3D ( 'NONE', #142, #50, #213 ) ;
#197 =( NAMED_UNIT ( * ) PLANE_ANGLE_UNIT ( ) SI_UNIT ( $, .RADIAN. ) );
#198 = PRODUCT ( '36300', '36300', '', ( #201 ) ) ;
#199 = ADVANCED_FACE ( 'NONE', ( #90, #214 ), #206, .T. ) ;
#200 = APPROVAL_ROLE ( '' ) ;
#201 = MECHANICAL_CONTEXT ( 'NONE', #149, 'mechanical' ) ;
#202 = ORIENTED_EDGE ( 'NONE', *, *, #128, .T. ) ;
#203 = DATE_AND_TIME ( #37, #113 ) ;
#204 = PERSON_AND_ORGANIZATION ( #110, #174 ) ;
#205 = ORIENTED_EDGE ( 'NONE', *, *, #2, .F. ) ;
#206 = CONICAL_SURFACE ( 'NONE', #156, 4.000000000000000000, 0.7853981633974495002 ) ;
#207 = FACE_OUTER_BOUND ( 'NONE', #106, .T. ) ;
#208 = PRODUCT_DEFINITION_FORMATION_WITH_SPECIFIED_SOURCE ( 'ANY', '', #198, .NOT_KNOWN. ) ;
#209 = ORIENTED_EDGE ( 'NONE', *, *, #8, .F. ) ;
#210 = DIRECTION ( 'NONE',  ( 4.275831445896958607E-31, 1.000000000000000000, 1.224646799147353207E-16 ) ) ;
#211 = AXIS2_PLACEMENT_3D ( 'NONE', #100, #6, #84 ) ;
#212 = DIRECTION ( 'NONE',  ( -4.275831445896958607E-31, -1.000000000000000000, -1.224646799147353207E-16 ) ) ;
#213 = DIRECTION ( 'NONE',  ( 0.0000000000000000000, 1.000000000000000000, 0.0000000000000000000 ) ) ;
#214 = FACE_OUTER_BOUND ( 'NONE', #190, .T. ) ;
#215 = DIRECTION ( 'NONE',  ( -3.491481338843133355E-15, 1.224646799147353207E-16, -1.000000000000000000 ) ) ;
#216 = DATE_AND_TIME ( #73, #58 ) ;
#217 = CIRCLE ( 'NONE', #130, 3.899999999999999911 ) ;
#218 = COORDINATED_UNIVERSAL_TIME_OFFSET ( 1, 0, .AHEAD. ) ;
#219 = ORIENTED_EDGE ( 'NONE', *, *, #120, .T. ) ;
#220 = CALENDAR_DATE ( 2021, 12, 11 ) ;
#221 = EDGE_CURVE ( 'NONE', #165, #165, #121, .T. ) ;
#222 = APPROVAL_DATE_TIME ( #186, #79 ) ;
#223 = APPLICATION_CONTEXT ( 'configuration controlled 3d designs of mechanical parts and assemblies' ) ;
ENDSEC;
END-ISO-10303-21;
