ISO-10303-21;
HEADER;
FILE_DESCRIPTION (( 'STEP AP203' ),
    '1' );
FILE_NAME ('36299.step',
    '2021-11-12T07:08:13',
    ( '' ),
    ( '' ),
    'SwSTEP 2.0',
    'SolidWorks 2019',
    '' );
FILE_SCHEMA (( 'CONFIG_CONTROL_DESIGN' ));
ENDSEC;

DATA;
#1 = CYLINDRICAL_SURFACE ( 'NONE', #127, 3.000000000000000888 ) ;
#2 = APPROVAL_STATUS ( 'not_yet_approved' ) ;
#3 = EDGE_LOOP ( 'NONE', ( #154 ) ) ;
#4 = DATE_AND_TIME ( #19, #130 ) ;
#5 = CIRCLE ( 'NONE', #99, 2.400000000000002132 ) ;
#6 = ORIENTED_EDGE ( 'NONE', *, *, #177, .T. ) ;
#7 = ADVANCED_FACE ( 'NONE', ( #92, #73 ), #139, .T. ) ;
#8 = DATE_TIME_ROLE ( 'classification_date' ) ;
#9 = PLANE ( 'NONE',  #59 ) ;
#10 =( NAMED_UNIT ( * ) PLANE_ANGLE_UNIT ( ) SI_UNIT ( $, .RADIAN. ) );
#11 = CARTESIAN_POINT ( 'NONE',  ( 3.000000000000000444, 0.0000000000000000000, 0.09999999999998952782 ) ) ;
#12 = CONICAL_SURFACE ( 'NONE', #187, 3.000000000000001776, 0.7853981633974453924 ) ;
#13 = APPROVAL_ROLE ( '' ) ;
#14 = CC_DESIGN_PERSON_AND_ORGANIZATION_ASSIGNMENT ( #100, #84, ( #193 ) ) ;
#15 = PERSON_AND_ORGANIZATION ( #163, #181 ) ;
#16 = PERSON_AND_ORGANIZATION ( #163, #181 ) ;
#17 = EDGE_LOOP ( 'NONE', ( #56 ) ) ;
#18 = EDGE_LOOP ( 'NONE', ( #55 ) ) ;
#19 = CALENDAR_DATE ( 2021, 12, 11 ) ;
#20 = CARTESIAN_POINT ( 'NONE',  ( 0.0000000000000000000, 0.0000000000000000000, 0.0000000000000000000 ) ) ;
#21 = DIRECTION ( 'NONE',  ( -3.491481338843133355E-15, 1.224646799147353207E-16, -1.000000000000000000 ) ) ;
#22 = PERSON_AND_ORGANIZATION ( #163, #181 ) ;
#23 = DIRECTION ( 'NONE',  ( 1.000000000000000000, 0.0000000000000000000, -3.492034497213728733E-15 ) ) ;
#24 =( NAMED_UNIT ( * ) SI_UNIT ( $, .STERADIAN. ) SOLID_ANGLE_UNIT ( ) );
#25 =( GEOMETRIC_REPRESENTATION_CONTEXT ( 3 ) GLOBAL_UNCERTAINTY_ASSIGNED_CONTEXT ( ( #162 ) ) GLOBAL_UNIT_ASSIGNED_CONTEXT ( ( #110, #10, #24 ) ) REPRESENTATION_CONTEXT ( 'NONE', 'WORKASPACE' ) );
#26 = VERTEX_POINT ( 'NONE', #148 ) ;
#27 = MANIFOLD_SOLID_BREP ( 'Corps-Déplacer/Copier1[2]', #43 ) ;
#28 = DIRECTION ( 'NONE',  ( 1.000000000000000000, 0.0000000000000000000, -3.492034497213728733E-15 ) ) ;
#29 = ADVANCED_FACE ( 'NONE', ( #191 ), #184, .T. ) ;
#30 = LOCAL_TIME ( 8, 8, 13.00000000000000000, #118 ) ;
#31 = CC_DESIGN_DATE_AND_TIME_ASSIGNMENT ( #165, #53, ( #67 ) ) ;
#32 = AXIS2_PLACEMENT_3D ( 'NONE', #195, #115, #33 ) ;
#33 = DIRECTION ( 'NONE',  ( 1.000000000000000000, 0.0000000000000000000, 0.0000000000000000000 ) ) ;
#34 = ORIENTED_EDGE ( 'NONE', *, *, #124, .T. ) ;
#35 = EDGE_LOOP ( 'NONE', ( #57 ) ) ;
#36 = CARTESIAN_POINT ( 'NONE',  ( 3.491481338843133355E-14, -1.224646799147353256E-15, 10.00000000000000000 ) ) ;
#37 = CARTESIAN_POINT ( 'NONE',  ( -4.731839565957903391E-32, 0.0000000000000000000, -1.355252715606880543E-17 ) ) ;
#38 = CARTESIAN_POINT ( 'NONE',  ( 1.745740669421566678E-13, 1.799711739194221740E-32, 50.00000000000000000 ) ) ;
#39 = DIRECTION ( 'NONE',  ( -3.491481338843133355E-15, 1.224646799147353207E-16, -1.000000000000000000 ) ) ;
#40 = CALENDAR_DATE ( 2021, 12, 11 ) ;
#41 = DIRECTION ( 'NONE',  ( -4.275831445896958607E-31, -1.000000000000000000, -1.224646799147353207E-16 ) ) ;
#42 = CARTESIAN_POINT ( 'NONE',  ( 1.745740669421566678E-13, 2.399999999999995914, 50.00000000000000000 ) ) ;
#43 = CLOSED_SHELL ( 'NONE', ( #7, #29, #200, #159 ) ) ;
#44 = APPROVAL_PERSON_ORGANIZATION ( #90, #203, #208 ) ;
#45 = VERTEX_POINT ( 'NONE', #129 ) ;
#46 = EDGE_CURVE ( 'NONE', #192, #192, #109, .T. ) ;
#47 = APPLICATION_CONTEXT ( 'configuration controlled 3d designs of mechanical parts and assemblies' ) ;
#48 = SECURITY_CLASSIFICATION ( '', '', #160 ) ;
#49 = CLOSED_SHELL ( 'NONE', ( #219, #146, #182, #104 ) ) ;
#50 = MECHANICAL_CONTEXT ( 'NONE', #47, 'mechanical' ) ;
#51 = CC_DESIGN_APPROVAL ( #203, ( #48 ) ) ;
#52 = EDGE_CURVE ( 'NONE', #94, #94, #5, .T. ) ;
#53 = DATE_TIME_ROLE ( 'creation_date' ) ;
#54 = DIRECTION ( 'NONE',  ( 0.0000000000000000000, 1.000000000000000000, 0.0000000000000000000 ) ) ;
#55 = ORIENTED_EDGE ( 'NONE', *, *, #46, .F. ) ;
#56 = ORIENTED_EDGE ( 'NONE', *, *, #149, .T. ) ;
#57 = ORIENTED_EDGE ( 'NONE', *, *, #177, .F. ) ;
#58 = DIRECTION ( 'NONE',  ( 3.491481338843133355E-15, -0.0000000000000000000, 1.000000000000000000 ) ) ;
#59 = AXIS2_PLACEMENT_3D ( 'NONE', #197, #164, #41 ) ;
#60 = APPLICATION_CONTEXT ( 'configuration controlled 3d designs of mechanical parts and assemblies' ) ;
#61 = PRODUCT ( '36299', '36299', '', ( #50 ) ) ;
#62 = CARTESIAN_POINT ( 'NONE',  ( 3.491481338843133355E-16, 0.0000000000000000000, 0.1000000000000000056 ) ) ;
#63 = AXIS2_PLACEMENT_3D ( 'NONE', #89, #21, #119 ) ;
#64 = LOCAL_TIME ( 8, 8, 13.00000000000000000, #190 ) ;
#65 = FACE_BOUND ( 'NONE', #72, .T. ) ;
#66 = CIRCLE ( 'NONE', #87, 3.000000000000000000 ) ;
#67 = PRODUCT_DEFINITION ( 'UNKNOWN', '', #193, #147 ) ;
#68 = FACE_OUTER_BOUND ( 'NONE', #204, .T. ) ;
#69 = PERSON_AND_ORGANIZATION ( #163, #181 ) ;
#70 = ADVANCED_BREP_SHAPE_REPRESENTATION ( '36299', ( #171, #27, #32 ), #25 ) ;
#71 = FACE_OUTER_BOUND ( 'NONE', #77, .T. ) ;
#72 = EDGE_LOOP ( 'NONE', ( #86 ) ) ;
#73 = FACE_OUTER_BOUND ( 'NONE', #210, .T. ) ;
#74 = AXIS2_PLACEMENT_3D ( 'NONE', #123, #223, #189 ) ;
#75 = LOCAL_TIME ( 8, 8, 13.00000000000000000, #205 ) ;
#76 = PERSON_AND_ORGANIZATION ( #163, #181 ) ;
#77 = EDGE_LOOP ( 'NONE', ( #140 ) ) ;
#78 = DIRECTION ( 'NONE',  ( -3.491481338843133355E-15, 1.224646799147353207E-16, -1.000000000000000000 ) ) ;
#79 = CC_DESIGN_APPROVAL ( #211, ( #67 ) ) ;
#80 = CIRCLE ( 'NONE', #63, 3.000000000000000000 ) ;
#81 = CARTESIAN_POINT ( 'NONE',  ( 1.724791781388508004E-13, 2.999999999999995559, 49.39999999999999858 ) ) ;
#82 = DIRECTION ( 'NONE',  ( 3.491481338843133355E-15, -0.0000000000000000000, 1.000000000000000000 ) ) ;
#83 = COORDINATED_UNIVERSAL_TIME_OFFSET ( 1, 0, .AHEAD. ) ;
#84 = PERSON_AND_ORGANIZATION_ROLE ( 'creator' ) ;
#85 = DIRECTION ( 'NONE',  ( 4.275831445896958607E-31, 1.000000000000000000, 1.224646799147353207E-16 ) ) ;
#86 = ORIENTED_EDGE ( 'NONE', *, *, #52, .T. ) ;
#87 = AXIS2_PLACEMENT_3D ( 'NONE', #36, #172, #54 ) ;
#88 = APPLICATION_PROTOCOL_DEFINITION ( 'international standard', 'config_control_design', 1994, #60 ) ;
#89 = CARTESIAN_POINT ( 'NONE',  ( 3.491481338843133355E-14, -1.224646799147353256E-15, 10.00000000000000000 ) ) ;
#90 = PERSON_AND_ORGANIZATION ( #163, #181 ) ;
#91 = DIRECTION ( 'NONE',  ( -3.491481338843133355E-15, 1.224646799147353207E-16, -1.000000000000000000 ) ) ;
#92 = FACE_OUTER_BOUND ( 'NONE', #103, .T. ) ;
#93 = CIRCLE ( 'NONE', #116, 2.899999999999999911 ) ;
#94 = VERTEX_POINT ( 'NONE', #42 ) ;
#95 = VERTEX_POINT ( 'NONE', #143 ) ;
#96 = CC_DESIGN_PERSON_AND_ORGANIZATION_ASSIGNMENT ( #76, #194, ( #48 ) ) ;
#97 = PLANE ( 'NONE',  #198 ) ;
#98 = PERSON_AND_ORGANIZATION_ROLE ( 'creator' ) ;
#99 = AXIS2_PLACEMENT_3D ( 'NONE', #206, #138, #207 ) ;
#100 = PERSON_AND_ORGANIZATION ( #163, #181 ) ;
#101 = PRODUCT_RELATED_PRODUCT_CATEGORY ( 'detail', '', ( #61 ) ) ;
#102 = DIRECTION ( 'NONE',  ( 4.275831445896959482E-31, 1.000000000000000000, 1.224646799147353207E-16 ) ) ;
#103 = EDGE_LOOP ( 'NONE', ( #188 ) ) ;
#104 = ADVANCED_FACE ( 'NONE', ( #71 ), #137, .F. ) ;
#105 = PERSON_AND_ORGANIZATION_ROLE ( 'design_supplier' ) ;
#106 = FACE_OUTER_BOUND ( 'NONE', #3, .T. ) ;
#107 = DIRECTION ( 'NONE',  ( 3.491481338843133355E-15, -0.0000000000000000000, 1.000000000000000000 ) ) ;
#108 = DIRECTION ( 'NONE',  ( -3.491481338843133355E-15, 1.224646799147353207E-16, -1.000000000000000000 ) ) ;
#109 = CIRCLE ( 'NONE', #74, 3.000000000000001776 ) ;
#110 =( LENGTH_UNIT ( ) NAMED_UNIT ( * ) SI_UNIT ( .MILLI., .METRE. ) );
#111 = CARTESIAN_POINT ( 'NONE',  ( -6.413747168845438786E-31, 2.249639673992786412E-32, -1.836970198721029934E-16 ) ) ;
#112 = PERSON_AND_ORGANIZATION_ROLE ( 'design_owner' ) ;
#113 = CC_DESIGN_PERSON_AND_ORGANIZATION_ASSIGNMENT ( #69, #112, ( #61 ) ) ;
#114 = APPROVAL_DATE_TIME ( #132, #216 ) ;
#115 = DIRECTION ( 'NONE',  ( 0.0000000000000000000, 0.0000000000000000000, 1.000000000000000000 ) ) ;
#116 = AXIS2_PLACEMENT_3D ( 'NONE', #37, #107, #156 ) ;
#117 = EDGE_LOOP ( 'NONE', ( #222 ) ) ;
#118 = COORDINATED_UNIVERSAL_TIME_OFFSET ( 1, 0, .AHEAD. ) ;
#119 = DIRECTION ( 'NONE',  ( 0.0000000000000000000, 1.000000000000000000, 0.0000000000000000000 ) ) ;
#120 = PRODUCT_DEFINITION_SHAPE ( 'NONE', 'NONE',  #67 ) ;
#121 = ORIENTED_EDGE ( 'NONE', *, *, #136, .F. ) ;
#122 = CC_DESIGN_APPROVAL ( #216, ( #193 ) ) ;
#123 = CARTESIAN_POINT ( 'NONE',  ( 1.724791781388508004E-13, -6.049755187787925154E-15, 49.39999999999999858 ) ) ;
#124 = EDGE_CURVE ( 'NONE', #95, #95, #66, .T. ) ;
#125 = EDGE_LOOP ( 'NONE', ( #121 ) ) ;
#126 = DIRECTION ( 'NONE',  ( 0.0000000000000000000, 1.000000000000000000, 0.0000000000000000000 ) ) ;
#127 = AXIS2_PLACEMENT_3D ( 'NONE', #20, #91, #85 ) ;
#128 = APPROVAL_PERSON_ORGANIZATION ( #218, #211, #13 ) ;
#129 = CARTESIAN_POINT ( 'NONE',  ( 3.491481338843133355E-14, 2.999999999999998668, 10.00000000000000000 ) ) ;
#130 = LOCAL_TIME ( 8, 8, 13.00000000000000000, #141 ) ;
#131 = AXIS2_PLACEMENT_3D ( 'NONE', #169, #186, #153 ) ;
#132 = DATE_AND_TIME ( #220, #30 ) ;
#133 = CONICAL_SURFACE ( 'NONE', #152, 3.000000000000000000, 0.7853981633974495002 ) ;
#134 = ORIENTED_EDGE ( 'NONE', *, *, #46, .T. ) ;
#135 = APPROVAL_STATUS ( 'not_yet_approved' ) ;
#136 = EDGE_CURVE ( 'NONE', #45, #45, #80, .T. ) ;
#137 = PLANE ( 'NONE',  #202 ) ;
#138 = DIRECTION ( 'NONE',  ( -3.491481338843133355E-15, 1.224646799147353207E-16, -1.000000000000000000 ) ) ;
#139 = CYLINDRICAL_SURFACE ( 'NONE', #166, 3.000000000000000000 ) ;
#140 = ORIENTED_EDGE ( 'NONE', *, *, #52, .F. ) ;
#141 = COORDINATED_UNIVERSAL_TIME_OFFSET ( 1, 0, .AHEAD. ) ;
#142 = CARTESIAN_POINT ( 'NONE',  ( 3.491481338843133355E-16, 0.0000000000000000000, 0.1000000000000000056 ) ) ;
#143 = CARTESIAN_POINT ( 'NONE',  ( 3.491481338843133355E-14, 2.999999999999998668, 10.00000000000000000 ) ) ;
#144 = LOCAL_TIME ( 8, 8, 13.00000000000000000, #83 ) ;
#145 = SHAPE_DEFINITION_REPRESENTATION ( #120, #70 ) ;
#146 = ADVANCED_FACE ( 'NONE', ( #68, #106 ), #1, .T. ) ;
#147 = DESIGN_CONTEXT ( 'detailed design', #60, 'design' ) ;
#148 = CARTESIAN_POINT ( 'NONE',  ( 2.899999999999999911, 0.0000000000000000000, -1.013884840980115396E-14 ) ) ;
#149 = EDGE_CURVE ( 'NONE', #26, #26, #93, .T. ) ;
#150 = CALENDAR_DATE ( 2021, 12, 11 ) ;
#151 = FACE_OUTER_BOUND ( 'NONE', #117, .T. ) ;
#152 = AXIS2_PLACEMENT_3D ( 'NONE', #62, #82, #28 ) ;
#153 = DIRECTION ( 'NONE',  ( -4.275831445896958607E-31, -1.000000000000000000, -1.224646799147353207E-16 ) ) ;
#154 = ORIENTED_EDGE ( 'NONE', *, *, #124, .F. ) ;
#155 = EDGE_LOOP ( 'NONE', ( #34 ) ) ;
#156 = DIRECTION ( 'NONE',  ( 1.000000000000000000, 0.0000000000000000000, -3.491481338843132961E-15 ) ) ;
#157 = CARTESIAN_POINT ( 'NONE',  ( 1.724791781388508004E-13, -6.049755187787925154E-15, 49.39999999999999858 ) ) ;
#158 = DIRECTION ( 'NONE',  ( 4.275831445896958607E-31, 1.000000000000000000, 1.224646799147353207E-16 ) ) ;
#159 = ADVANCED_FACE ( 'NONE', ( #151 ), #97, .T. ) ;
#160 = SECURITY_CLASSIFICATION_LEVEL ( 'unclassified' ) ;
#161 = APPLICATION_PROTOCOL_DEFINITION ( 'international standard', 'config_control_design', 1994, #47 ) ;
#162 = UNCERTAINTY_MEASURE_WITH_UNIT (LENGTH_MEASURE( 1.000000000000000082E-05 ), #110, 'distance_accuracy_value', 'NONE');
#163 = PERSON ( 'UNSPECIFIED', 'UNSPECIFIED', 'UNSPECIFIED', ('UNSPECIFIED'), ('UNSPECIFIED'), ('UNSPECIFIED') ) ;
#164 = DIRECTION ( 'NONE',  ( 3.491481338843133355E-15, -1.224646799147353207E-16, 1.000000000000000000 ) ) ;
#165 = DATE_AND_TIME ( #150, #144 ) ;
#166 = AXIS2_PLACEMENT_3D ( 'NONE', #173, #209, #102 ) ;
#167 = APPROVAL_PERSON_ORGANIZATION ( #15, #216, #201 ) ;
#168 = APPROVAL_DATE_TIME ( #183, #211 ) ;
#169 = CARTESIAN_POINT ( 'NONE',  ( 3.491481338843133355E-14, 2.249639673992784496E-32, 10.00000000000000000 ) ) ;
#170 = DIRECTION ( 'NONE',  ( 4.275831445896958607E-31, 1.000000000000000000, 1.224646799147353207E-16 ) ) ;
#171 = MANIFOLD_SOLID_BREP ( 'Corps-Déplacer/Copier1[1]', #49 ) ;
#172 = DIRECTION ( 'NONE',  ( -3.491481338843133355E-15, 1.224646799147353207E-16, -1.000000000000000000 ) ) ;
#173 = CARTESIAN_POINT ( 'NONE',  ( 0.0000000000000000000, 0.0000000000000000000, 0.0000000000000000000 ) ) ;
#174 = CC_DESIGN_PERSON_AND_ORGANIZATION_ASSIGNMENT ( #22, #105, ( #193 ) ) ;
#175 = DATE_AND_TIME ( #40, #64 ) ;
#176 = FACE_OUTER_BOUND ( 'NONE', #18, .T. ) ;
#177 = EDGE_CURVE ( 'NONE', #215, #215, #217, .T. ) ;
#178 = FACE_OUTER_BOUND ( 'NONE', #155, .T. ) ;
#179 = AXIS2_PLACEMENT_3D ( 'NONE', #142, #58, #23 ) ;
#180 = CC_DESIGN_DATE_AND_TIME_ASSIGNMENT ( #4, #8, ( #48 ) ) ;
#181 = ORGANIZATION ( 'UNSPECIFIED', 'UNSPECIFIED', '' ) ;
#182 = ADVANCED_FACE ( 'NONE', ( #65, #176 ), #12, .T. ) ;
#183 = DATE_AND_TIME ( #199, #75 ) ;
#184 = PLANE ( 'NONE',  #131 ) ;
#185 = APPROVAL_STATUS ( 'not_yet_approved' ) ;
#186 = DIRECTION ( 'NONE',  ( 3.491481338843133355E-15, -1.224646799147353207E-16, 1.000000000000000000 ) ) ;
#187 = AXIS2_PLACEMENT_3D ( 'NONE', #157, #78, #126 ) ;
#188 = ORIENTED_EDGE ( 'NONE', *, *, #136, .T. ) ;
#189 = DIRECTION ( 'NONE',  ( 0.0000000000000000000, 1.000000000000000000, 0.0000000000000000000 ) ) ;
#190 = COORDINATED_UNIVERSAL_TIME_OFFSET ( 1, 0, .AHEAD. ) ;
#191 = FACE_OUTER_BOUND ( 'NONE', #125, .T. ) ;
#192 = VERTEX_POINT ( 'NONE', #81 ) ;
#193 = PRODUCT_DEFINITION_FORMATION_WITH_SPECIFIED_SOURCE ( 'ANY', '', #61, .NOT_KNOWN. ) ;
#194 = PERSON_AND_ORGANIZATION_ROLE ( 'classification_officer' ) ;
#195 = CARTESIAN_POINT ( 'NONE',  ( 0.0000000000000000000, 0.0000000000000000000, 0.0000000000000000000 ) ) ;
#196 = CC_DESIGN_SECURITY_CLASSIFICATION ( #48, ( #193 ) ) ;
#197 = CARTESIAN_POINT ( 'NONE',  ( 3.491481338843133355E-14, 2.249639673992784496E-32, 10.00000000000000000 ) ) ;
#198 = AXIS2_PLACEMENT_3D ( 'NONE', #111, #39, #158 ) ;
#199 = CALENDAR_DATE ( 2021, 12, 11 ) ;
#200 = ADVANCED_FACE ( 'NONE', ( #213, #214 ), #133, .T. ) ;
#201 = APPROVAL_ROLE ( '' ) ;
#202 = AXIS2_PLACEMENT_3D ( 'NONE', #38, #108, #170 ) ;
#203 = APPROVAL ( #2, 'UNSPECIFIED' ) ;
#204 = EDGE_LOOP ( 'NONE', ( #134 ) ) ;
#205 = COORDINATED_UNIVERSAL_TIME_OFFSET ( 1, 0, .AHEAD. ) ;
#206 = CARTESIAN_POINT ( 'NONE',  ( 1.745740669421566678E-13, -6.123233995736766085E-15, 50.00000000000000000 ) ) ;
#207 = DIRECTION ( 'NONE',  ( 0.0000000000000000000, 1.000000000000000000, 0.0000000000000000000 ) ) ;
#208 = APPROVAL_ROLE ( '' ) ;
#209 = DIRECTION ( 'NONE',  ( -3.491481338843133355E-15, 1.224646799147353207E-16, -1.000000000000000000 ) ) ;
#210 = EDGE_LOOP ( 'NONE', ( #6 ) ) ;
#211 = APPROVAL ( #135, 'UNSPECIFIED' ) ;
#212 = APPROVAL_DATE_TIME ( #175, #203 ) ;
#213 = FACE_BOUND ( 'NONE', #17, .T. ) ;
#214 = FACE_OUTER_BOUND ( 'NONE', #35, .T. ) ;
#215 = VERTEX_POINT ( 'NONE', #11 ) ;
#216 = APPROVAL ( #185, 'UNSPECIFIED' ) ;
#217 = CIRCLE ( 'NONE', #179, 3.000000000000000000 ) ;
#218 = PERSON_AND_ORGANIZATION ( #163, #181 ) ;
#219 = ADVANCED_FACE ( 'NONE', ( #178 ), #9, .F. ) ;
#220 = CALENDAR_DATE ( 2021, 12, 11 ) ;
#221 = CC_DESIGN_PERSON_AND_ORGANIZATION_ASSIGNMENT ( #16, #98, ( #67 ) ) ;
#222 = ORIENTED_EDGE ( 'NONE', *, *, #149, .F. ) ;
#223 = DIRECTION ( 'NONE',  ( -3.491481338843133355E-15, 1.224646799147353207E-16, -1.000000000000000000 ) ) ;
ENDSEC;
END-ISO-10303-21;
