ISO-10303-21;
HEADER;
FILE_DESCRIPTION (( 'STEP AP203' ),
    '1' );
FILE_NAME ('36278.step',
    '2021-11-15T14:53:32',
    ( '' ),
    ( '' ),
    'SwSTEP 2.0',
    'SolidWorks 2019',
    '' );
FILE_SCHEMA (( 'CONFIG_CONTROL_DESIGN' ));
ENDSEC;

DATA;
#1 = CARTESIAN_POINT ( 'NONE',  ( 1.972686956446370535E-13, 2.999999999999995559, 56.50000000000000000 ) ) ;
#2 = CARTESIAN_POINT ( 'NONE',  ( -6.413633676021355712E-31, 2.249599866068799511E-32, -1.836937693084290584E-16 ) ) ;
#3 = DIRECTION ( 'NONE',  ( 4.275831445896958607E-31, 1.000000000000000000, 1.224646799147353207E-16 ) ) ;
#4 = CC_DESIGN_PERSON_AND_ORGANIZATION_ASSIGNMENT ( #39, #10, ( #192 ) ) ;
#5 = AXIS2_PLACEMENT_3D ( 'NONE', #180, #168, #74 ) ;
#6 = DIRECTION ( 'NONE',  ( -3.491481338843133355E-15, 1.224646799147353207E-16, -1.000000000000000000 ) ) ;
#7 = CIRCLE ( 'NONE', #122, 2.999999999999997335 ) ;
#8 = CC_DESIGN_APPROVAL ( #195, ( #192 ) ) ;
#9 = CALENDAR_DATE ( 2021, 15, 11 ) ;
#10 = PERSON_AND_ORGANIZATION_ROLE ( 'creator' ) ;
#11 = EDGE_LOOP ( 'NONE', ( #123 ) ) ;
#12 = CALENDAR_DATE ( 2021, 15, 11 ) ;
#13 = ADVANCED_FACE ( 'NONE', ( #149, #45 ), #15, .T. ) ;
#14 = ORIENTED_EDGE ( 'NONE', *, *, #40, .T. ) ;
#15 = CYLINDRICAL_SURFACE ( 'NONE', #67, 3.000000000000000000 ) ;
#16 = APPLICATION_CONTEXT ( 'configuration controlled 3d designs of mechanical parts and assemblies' ) ;
#17 =( GEOMETRIC_REPRESENTATION_CONTEXT ( 3 ) GLOBAL_UNCERTAINTY_ASSIGNED_CONTEXT ( ( #98 ) ) GLOBAL_UNIT_ASSIGNED_CONTEXT ( ( #159, #127, #42 ) ) REPRESENTATION_CONTEXT ( 'NONE', 'WORKASPACE' ) );
#18 = APPROVAL_DATE_TIME ( #157, #56 ) ;
#19 = PRODUCT_RELATED_PRODUCT_CATEGORY ( 'detail', '', ( #151 ) ) ;
#20 = FACE_OUTER_BOUND ( 'NONE', #120, .T. ) ;
#21 = SECURITY_CLASSIFICATION ( '', '', #141 ) ;
#22 = APPROVAL ( #58, 'UNSPECIFIED' ) ;
#23 = ADVANCED_FACE ( 'NONE', ( #111 ), #68, .F. ) ;
#24 = CIRCLE ( 'NONE', #135, 2.999999999999995559 ) ;
#25 = EDGE_CURVE ( 'NONE', #48, #48, #90, .T. ) ;
#26 = PERSON_AND_ORGANIZATION ( #194, #29 ) ;
#27 = EDGE_LOOP ( 'NONE', ( #121 ) ) ;
#28 = DIRECTION ( 'NONE',  ( -3.491481338843133355E-15, 1.224646799147353207E-16, -1.000000000000000000 ) ) ;
#29 = ORGANIZATION ( 'UNSPECIFIED', 'UNSPECIFIED', '' ) ;
#30 = LOCAL_TIME ( 15, 53, 32.00000000000000000, #75 ) ;
#31 = DIRECTION ( 'NONE',  ( 0.0000000000000000000, 1.000000000000000000, 0.0000000000000000000 ) ) ;
#32 = ADVANCED_FACE ( 'NONE', ( #125 ), #203, .F. ) ;
#33 = CARTESIAN_POINT ( 'NONE',  ( 4.538925740496073362E-14, -1.592040838891559095E-15, 13.00000000000000000 ) ) ;
#34 = PLANE ( 'NONE',  #198 ) ;
#35 = APPLICATION_CONTEXT ( 'configuration controlled 3d designs of mechanical parts and assemblies' ) ;
#36 = DIRECTION ( 'NONE',  ( 3.491481338843133355E-15, -1.224646799147353207E-16, 1.000000000000000000 ) ) ;
#37 = CARTESIAN_POINT ( 'NONE',  ( 0.0000000000000000000, 0.0000000000000000000, 0.0000000000000000000 ) ) ;
#38 = PERSON_AND_ORGANIZATION_ROLE ( 'creator' ) ;
#39 = PERSON_AND_ORGANIZATION ( #194, #29 ) ;
#40 = EDGE_CURVE ( 'NONE', #82, #82, #7, .T. ) ;
#41 = PERSON_AND_ORGANIZATION ( #194, #29 ) ;
#42 =( NAMED_UNIT ( * ) SI_UNIT ( $, .STERADIAN. ) SOLID_ANGLE_UNIT ( ) );
#43 = ADVANCED_FACE ( 'NONE', ( #70, #69 ), #144, .T. ) ;
#44 = APPROVAL_STATUS ( 'not_yet_approved' ) ;
#45 = FACE_OUTER_BOUND ( 'NONE', #27, .T. ) ;
#46 = PERSON_AND_ORGANIZATION ( #194, #29 ) ;
#47 = DIRECTION ( 'NONE',  ( 4.275831445896959482E-31, 1.000000000000000000, 1.224646799147353207E-16 ) ) ;
#48 = VERTEX_POINT ( 'NONE', #1 ) ;
#49 = CIRCLE ( 'NONE', #166, 2.500000000000002665 ) ;
#50 = DIRECTION ( 'NONE',  ( 0.0000000000000000000, 1.000000000000000000, 0.0000000000000000000 ) ) ;
#51 = MANIFOLD_SOLID_BREP ( 'Corps-Déplacer/Copier1[1]', #103 ) ;
#52 = VERTEX_POINT ( 'NONE', #155 ) ;
#53 = DIRECTION ( 'NONE',  ( -4.275831445896958607E-31, -1.000000000000000000, -1.224646799147353207E-16 ) ) ;
#54 = CIRCLE ( 'NONE', #71, 2.999999999999997335 ) ;
#55 = PLANE ( 'NONE',  #132 ) ;
#56 = APPROVAL ( #110, 'UNSPECIFIED' ) ;
#57 = DATE_AND_TIME ( #9, #186 ) ;
#58 = APPROVAL_STATUS ( 'not_yet_approved' ) ;
#59 = COORDINATED_UNIVERSAL_TIME_OFFSET ( 1, 0, .AHEAD. ) ;
#60 = MECHANICAL_CONTEXT ( 'NONE', #16, 'mechanical' ) ;
#61 = APPROVAL_ROLE ( '' ) ;
#62 = ADVANCED_FACE ( 'NONE', ( #99, #20 ), #95, .T. ) ;
#63 = ORIENTED_EDGE ( 'NONE', *, *, #176, .F. ) ;
#64 = AXIS2_PLACEMENT_3D ( 'NONE', #66, #128, #50 ) ;
#65 = APPROVAL_PERSON_ORGANIZATION ( #46, #56, #152 ) ;
#66 = CARTESIAN_POINT ( 'NONE',  ( 1.990144363140586139E-13, -6.980486755139912911E-15, 57.00000000000000000 ) ) ;
#67 = AXIS2_PLACEMENT_3D ( 'NONE', #109, #28, #47 ) ;
#68 = PLANE ( 'NONE',  #146 ) ;
#69 = FACE_BOUND ( 'NONE', #147, .T. ) ;
#70 = FACE_OUTER_BOUND ( 'NONE', #92, .T. ) ;
#71 = AXIS2_PLACEMENT_3D ( 'NONE', #139, #6, #31 ) ;
#72 = PERSON_AND_ORGANIZATION ( #194, #29 ) ;
#73 = DATE_TIME_ROLE ( 'creation_date' ) ;
#74 = DIRECTION ( 'NONE',  ( 1.000000000000000000, 0.0000000000000000000, 0.0000000000000000000 ) ) ;
#75 = COORDINATED_UNIVERSAL_TIME_OFFSET ( 1, 0, .AHEAD. ) ;
#76 = ADVANCED_FACE ( 'NONE', ( #160 ), #34, .F. ) ;
#77 = ORIENTED_EDGE ( 'NONE', *, *, #25, .F. ) ;
#78 = APPROVAL_PERSON_ORGANIZATION ( #41, #22, #61 ) ;
#79 = PRODUCT_DEFINITION_SHAPE ( 'NONE', 'NONE',  #192 ) ;
#80 = DIRECTION ( 'NONE',  ( -3.491481338843133355E-15, 1.224646799147353207E-16, -1.000000000000000000 ) ) ;
#81 = DIRECTION ( 'NONE',  ( -3.491481338843133355E-15, 1.224646799147353207E-16, -1.000000000000000000 ) ) ;
#82 = VERTEX_POINT ( 'NONE', #115 ) ;
#83 = CARTESIAN_POINT ( 'NONE',  ( -3.206816838010677856E-31, 1.124799933034399755E-32, -9.184688465421452921E-17 ) ) ;
#84 = DIRECTION ( 'NONE',  ( -4.275831445896958607E-31, -1.000000000000000000, -1.224646799147353207E-16 ) ) ;
#85 = PERSON_AND_ORGANIZATION_ROLE ( 'design_supplier' ) ;
#86 = DATE_AND_TIME ( #164, #119 ) ;
#87 = CALENDAR_DATE ( 2021, 15, 11 ) ;
#88 = ORIENTED_EDGE ( 'NONE', *, *, #89, .F. ) ;
#89 = EDGE_CURVE ( 'NONE', #188, #188, #24, .T. ) ;
#90 = CIRCLE ( 'NONE', #182, 3.000000000000002665 ) ;
#91 = PERSON_AND_ORGANIZATION ( #194, #29 ) ;
#92 = EDGE_LOOP ( 'NONE', ( #77 ) ) ;
#93 = ORIENTED_EDGE ( 'NONE', *, *, #40, .F. ) ;
#94 = CARTESIAN_POINT ( 'NONE',  ( 1.972686956446370535E-13, -6.919254415182545337E-15, 56.50000000000000000 ) ) ;
#95 = CYLINDRICAL_SURFACE ( 'NONE', #116, 2.999999999999996447 ) ;
#96 = CARTESIAN_POINT ( 'NONE',  ( 6.413860661669502591E-31, 2.999999999999995559, 1.837002704357763860E-16 ) ) ;
#97 = CC_DESIGN_APPROVAL ( #22, ( #167 ) ) ;
#98 = UNCERTAINTY_MEASURE_WITH_UNIT (LENGTH_MEASURE( 1.000000000000000082E-05 ), #159, 'distance_accuracy_value', 'NONE');
#99 = FACE_OUTER_BOUND ( 'NONE', #106, .T. ) ;
#100 = CARTESIAN_POINT ( 'NONE',  ( 4.538925740496073362E-14, 2.249639673992782033E-32, 13.00000000000000000 ) ) ;
#101 = PERSON_AND_ORGANIZATION ( #194, #29 ) ;
#102 = ADVANCED_FACE ( 'NONE', ( #171 ), #55, .T. ) ;
#103 = CLOSED_SHELL ( 'NONE', ( #76, #13, #43, #23 ) ) ;
#104 = COORDINATED_UNIVERSAL_TIME_OFFSET ( 1, 0, .AHEAD. ) ;
#105 = APPROVAL_DATE_TIME ( #177, #22 ) ;
#106 = EDGE_LOOP ( 'NONE', ( #88 ) ) ;
#107 = PERSON_AND_ORGANIZATION ( #194, #29 ) ;
#108 = CC_DESIGN_DATE_AND_TIME_ASSIGNMENT ( #86, #73, ( #192 ) ) ;
#109 = CARTESIAN_POINT ( 'NONE',  ( 0.0000000000000000000, 0.0000000000000000000, 0.0000000000000000000 ) ) ;
#110 = APPROVAL_STATUS ( 'not_yet_approved' ) ;
#111 = FACE_OUTER_BOUND ( 'NONE', #181, .T. ) ;
#112 = CARTESIAN_POINT ( 'NONE',  ( 4.538925740496073362E-14, 2.249639673992782033E-32, 13.00000000000000000 ) ) ;
#113 = DIRECTION ( 'NONE',  ( 3.491481338843133355E-15, -1.224646799147353207E-16, 1.000000000000000000 ) ) ;
#114 = DIRECTION ( 'NONE',  ( -3.491481338843133355E-15, 1.224646799147353207E-16, -1.000000000000000000 ) ) ;
#115 = CARTESIAN_POINT ( 'NONE',  ( 4.538925740496073362E-14, 2.999999999999995559, 13.00000000000000000 ) ) ;
#116 = AXIS2_PLACEMENT_3D ( 'NONE', #37, #191, #126 ) ;
#117 = CARTESIAN_POINT ( 'NONE',  ( 1.990144363140586139E-13, 1.874699728327313799E-32, 57.00000000000000000 ) ) ;
#118 = APPROVAL_ROLE ( '' ) ;
#119 = LOCAL_TIME ( 15, 53, 32.00000000000000000, #104 ) ;
#120 = EDGE_LOOP ( 'NONE', ( #14 ) ) ;
#121 = ORIENTED_EDGE ( 'NONE', *, *, #25, .T. ) ;
#122 = AXIS2_PLACEMENT_3D ( 'NONE', #33, #80, #187 ) ;
#123 = ORIENTED_EDGE ( 'NONE', *, *, #130, .T. ) ;
#124 = CARTESIAN_POINT ( 'NONE',  ( 1.990144363140586139E-13, -6.980486755139912911E-15, 57.00000000000000000 ) ) ;
#125 = FACE_OUTER_BOUND ( 'NONE', #133, .T. ) ;
#126 = DIRECTION ( 'NONE',  ( 4.275831445896958607E-31, 1.000000000000000000, 1.224646799147353207E-16 ) ) ;
#127 =( NAMED_UNIT ( * ) PLANE_ANGLE_UNIT ( ) SI_UNIT ( $, .RADIAN. ) );
#128 = DIRECTION ( 'NONE',  ( -3.491481338843133355E-15, 1.224646799147353207E-16, -1.000000000000000000 ) ) ;
#129 = APPLICATION_PROTOCOL_DEFINITION ( 'international standard', 'config_control_design', 1994, #16 ) ;
#130 = EDGE_CURVE ( 'NONE', #52, #52, #54, .T. ) ;
#131 = ADVANCED_BREP_SHAPE_REPRESENTATION ( '36278', ( #51, #179, #5 ), #17 ) ;
#132 = AXIS2_PLACEMENT_3D ( 'NONE', #100, #161, #84 ) ;
#133 = EDGE_LOOP ( 'NONE', ( #184 ) ) ;
#134 = CLOSED_SHELL ( 'NONE', ( #32, #62, #102 ) ) ;
#135 = AXIS2_PLACEMENT_3D ( 'NONE', #2, #81, #138 ) ;
#136 = CARTESIAN_POINT ( 'NONE',  ( 1.990144363140586139E-13, 2.499999999999995559, 57.00000000000000000 ) ) ;
#137 = DIRECTION ( 'NONE',  ( -3.491481338843133355E-15, 1.224646799147353207E-16, -1.000000000000000000 ) ) ;
#138 = DIRECTION ( 'NONE',  ( 4.275831445896959482E-31, 1.000000000000000000, 1.224646799147353207E-16 ) ) ;
#139 = CARTESIAN_POINT ( 'NONE',  ( 4.538925740496073362E-14, -1.592040838891559095E-15, 13.00000000000000000 ) ) ;
#140 = APPROVAL_PERSON_ORGANIZATION ( #91, #195, #118 ) ;
#141 = SECURITY_CLASSIFICATION_LEVEL ( 'unclassified' ) ;
#142 = DESIGN_CONTEXT ( 'detailed design', #35, 'design' ) ;
#143 = CALENDAR_DATE ( 2021, 15, 11 ) ;
#144 = CONICAL_SURFACE ( 'NONE', #64, 2.500000000000002665, 0.7853981633974479459 ) ;
#145 = LOCAL_TIME ( 15, 53, 32.00000000000000000, #163 ) ;
#146 = AXIS2_PLACEMENT_3D ( 'NONE', #117, #189, #3 ) ;
#147 = EDGE_LOOP ( 'NONE', ( #201 ) ) ;
#148 = PERSON_AND_ORGANIZATION_ROLE ( 'design_owner' ) ;
#149 = FACE_OUTER_BOUND ( 'NONE', #196, .T. ) ;
#150 = DATE_TIME_ROLE ( 'classification_date' ) ;
#151 = PRODUCT ( '36278', '36278', '', ( #60 ) ) ;
#152 = APPROVAL_ROLE ( '' ) ;
#153 = EDGE_LOOP ( 'NONE', ( #93 ) ) ;
#154 = CC_DESIGN_PERSON_AND_ORGANIZATION_ASSIGNMENT ( #26, #183, ( #21 ) ) ;
#155 = CARTESIAN_POINT ( 'NONE',  ( 4.538925740496073362E-14, 2.999999999999995559, 13.00000000000000000 ) ) ;
#156 = DIRECTION ( 'NONE',  ( -4.275831445896958607E-31, -1.000000000000000000, -1.224646799147353207E-16 ) ) ;
#157 = DATE_AND_TIME ( #12, #193 ) ;
#158 = CC_DESIGN_PERSON_AND_ORGANIZATION_ASSIGNMENT ( #101, #85, ( #167 ) ) ;
#159 =( LENGTH_UNIT ( ) NAMED_UNIT ( * ) SI_UNIT ( .MILLI., .METRE. ) );
#160 = FACE_OUTER_BOUND ( 'NONE', #11, .T. ) ;
#161 = DIRECTION ( 'NONE',  ( 3.491481338843133355E-15, -1.224646799147353207E-16, 1.000000000000000000 ) ) ;
#162 = CC_DESIGN_PERSON_AND_ORGANIZATION_ASSIGNMENT ( #72, #38, ( #167 ) ) ;
#163 = COORDINATED_UNIVERSAL_TIME_OFFSET ( 1, 0, .AHEAD. ) ;
#164 = CALENDAR_DATE ( 2021, 15, 11 ) ;
#165 = CC_DESIGN_DATE_AND_TIME_ASSIGNMENT ( #199, #150, ( #21 ) ) ;
#166 = AXIS2_PLACEMENT_3D ( 'NONE', #124, #137, #185 ) ;
#167 = PRODUCT_DEFINITION_FORMATION_WITH_SPECIFIED_SOURCE ( 'ANY', '', #151, .NOT_KNOWN. ) ;
#168 = DIRECTION ( 'NONE',  ( 0.0000000000000000000, 0.0000000000000000000, 1.000000000000000000 ) ) ;
#169 = APPLICATION_PROTOCOL_DEFINITION ( 'international standard', 'config_control_design', 1994, #35 ) ;
#170 = ORIENTED_EDGE ( 'NONE', *, *, #130, .F. ) ;
#171 = FACE_OUTER_BOUND ( 'NONE', #153, .T. ) ;
#172 = DIRECTION ( 'NONE',  ( 0.0000000000000000000, 1.000000000000000000, 0.0000000000000000000 ) ) ;
#173 = SHAPE_DEFINITION_REPRESENTATION ( #79, #131 ) ;
#174 = VERTEX_POINT ( 'NONE', #136 ) ;
#175 = APPROVAL_DATE_TIME ( #57, #195 ) ;
#176 = EDGE_CURVE ( 'NONE', #174, #174, #49, .T. ) ;
#177 = DATE_AND_TIME ( #143, #145 ) ;
#178 = AXIS2_PLACEMENT_3D ( 'NONE', #83, #36, #53 ) ;
#179 = MANIFOLD_SOLID_BREP ( 'Corps-Déplacer/Copier1[2]', #134 ) ;
#180 = CARTESIAN_POINT ( 'NONE',  ( 0.0000000000000000000, 0.0000000000000000000, 0.0000000000000000000 ) ) ;
#181 = EDGE_LOOP ( 'NONE', ( #63 ) ) ;
#182 = AXIS2_PLACEMENT_3D ( 'NONE', #94, #114, #172 ) ;
#183 = PERSON_AND_ORGANIZATION_ROLE ( 'classification_officer' ) ;
#184 = ORIENTED_EDGE ( 'NONE', *, *, #89, .T. ) ;
#185 = DIRECTION ( 'NONE',  ( 0.0000000000000000000, 1.000000000000000000, 0.0000000000000000000 ) ) ;
#186 = LOCAL_TIME ( 15, 53, 32.00000000000000000, #59 ) ;
#187 = DIRECTION ( 'NONE',  ( 0.0000000000000000000, 1.000000000000000000, 0.0000000000000000000 ) ) ;
#188 = VERTEX_POINT ( 'NONE', #96 ) ;
#189 = DIRECTION ( 'NONE',  ( -3.491481338843133355E-15, 1.224646799147353207E-16, -1.000000000000000000 ) ) ;
#190 = CC_DESIGN_APPROVAL ( #56, ( #21 ) ) ;
#191 = DIRECTION ( 'NONE',  ( -3.491481338843133355E-15, 1.224646799147353207E-16, -1.000000000000000000 ) ) ;
#192 = PRODUCT_DEFINITION ( 'UNKNOWN', '', #167, #142 ) ;
#193 = LOCAL_TIME ( 15, 53, 32.00000000000000000, #202 ) ;
#194 = PERSON ( 'UNSPECIFIED', 'UNSPECIFIED', 'UNSPECIFIED', ('UNSPECIFIED'), ('UNSPECIFIED'), ('UNSPECIFIED') ) ;
#195 = APPROVAL ( #44, 'UNSPECIFIED' ) ;
#196 = EDGE_LOOP ( 'NONE', ( #170 ) ) ;
#197 = CC_DESIGN_PERSON_AND_ORGANIZATION_ASSIGNMENT ( #107, #148, ( #151 ) ) ;
#198 = AXIS2_PLACEMENT_3D ( 'NONE', #112, #113, #156 ) ;
#199 = DATE_AND_TIME ( #87, #30 ) ;
#200 = CC_DESIGN_SECURITY_CLASSIFICATION ( #21, ( #167 ) ) ;
#201 = ORIENTED_EDGE ( 'NONE', *, *, #176, .T. ) ;
#202 = COORDINATED_UNIVERSAL_TIME_OFFSET ( 1, 0, .AHEAD. ) ;
#203 = PLANE ( 'NONE',  #178 ) ;
ENDSEC;
END-ISO-10303-21;
