ISO-10303-21;
HEADER;
FILE_DESCRIPTION (( 'STEP AP203' ),
    '1' );
FILE_NAME ('36247.step',
    '2021-11-01T09:45:33',
    ( '' ),
    ( '' ),
    'SwSTEP 2.0',
    'SolidWorks 2019',
    '' );
FILE_SCHEMA (( 'CONFIG_CONTROL_DESIGN' ));
ENDSEC;

DATA;
#1 = FACE_OUTER_BOUND ( 'NONE', #149, .T. ) ;
#2 = VERTEX_POINT ( 'NONE', #126 ) ;
#3 = DIRECTION ( 'NONE',  ( 3.491481338843133355E-15, -1.227517819005651059E-16, 1.000000000000000000 ) ) ;
#4 = SECURITY_CLASSIFICATION_LEVEL ( 'unclassified' ) ;
#5 = DATE_AND_TIME ( #160, #49 ) ;
#6 = CC_DESIGN_PERSON_AND_ORGANIZATION_ASSIGNMENT ( #213, #22, ( #66 ) ) ;
#7 = CALENDAR_DATE ( 2021, 1, 11 ) ;
#8 = CALENDAR_DATE ( 2021, 1, 11 ) ;
#9 = EDGE_LOOP ( 'NONE', ( #188 ) ) ;
#10 = ORIENTED_EDGE ( 'NONE', *, *, #19, .F. ) ;
#11 = AXIS2_PLACEMENT_3D ( 'NONE', #202, #82, #148 ) ;
#12 = CC_DESIGN_PERSON_AND_ORGANIZATION_ASSIGNMENT ( #21, #159, ( #66 ) ) ;
#13 = FACE_OUTER_BOUND ( 'NONE', #63, .T. ) ;
#14 = CARTESIAN_POINT ( 'NONE',  ( 1.990144363140586139E-13, 1.799711739194220919E-32, 57.00000000000000000 ) ) ;
#15 = AXIS2_PLACEMENT_3D ( 'NONE', #142, #55, #72 ) ;
#16 = DIRECTION ( 'NONE',  ( -4.285855558155653280E-31, -1.000000000000000000, -1.227517819005651059E-16 ) ) ;
#17 = DIRECTION ( 'NONE',  ( 3.491481338843133355E-15, -1.224646799147353207E-16, 1.000000000000000000 ) ) ;
#18 = CARTESIAN_POINT ( 'NONE',  ( 1.990144363140586139E-13, -6.980486755139912911E-15, 57.00000000000000000 ) ) ;
#19 = EDGE_CURVE ( 'NONE', #69, #69, #25, .T. ) ;
#20 = PERSON_AND_ORGANIZATION_ROLE ( 'design_owner' ) ;
#21 = PERSON_AND_ORGANIZATION ( #116, #173 ) ;
#22 = PERSON_AND_ORGANIZATION_ROLE ( 'creator' ) ;
#23 = EDGE_CURVE ( 'NONE', #38, #38, #120, .T. ) ;
#24 =( LENGTH_UNIT ( ) NAMED_UNIT ( * ) SI_UNIT ( .MILLI., .METRE. ) );
#25 = CIRCLE ( 'NONE', #11, 3.000000000000002665 ) ;
#26 = APPROVAL_STATUS ( 'not_yet_approved' ) ;
#27 = ORIENTED_EDGE ( 'NONE', *, *, #97, .T. ) ;
#28 = AXIS2_PLACEMENT_3D ( 'NONE', #95, #17, #39 ) ;
#29 = EDGE_LOOP ( 'NONE', ( #189 ) ) ;
#30 = PRODUCT_DEFINITION_SHAPE ( 'NONE', 'NONE',  #180 ) ;
#31 = DESIGN_CONTEXT ( 'detailed design', #158, 'design' ) ;
#32 = DIRECTION ( 'NONE',  ( 0.0000000000000000000, 1.000000000000000000, 0.0000000000000000000 ) ) ;
#33 = CARTESIAN_POINT ( 'NONE',  ( -3.206816838010677856E-31, 1.124799933034399755E-32, -9.184688465421452921E-17 ) ) ;
#34 = LOCAL_TIME ( 10, 45, 33.00000000000000000, #196 ) ;
#35 = LOCAL_TIME ( 10, 45, 33.00000000000000000, #183 ) ;
#36 = DIRECTION ( 'NONE',  ( -4.285855558155654155E-31, -1.000000000000000000, -1.227517819005651059E-16 ) ) ;
#37 = PRODUCT ( '36247', '36247', '', ( #185 ) ) ;
#38 = VERTEX_POINT ( 'NONE', #156 ) ;
#39 = DIRECTION ( 'NONE',  ( -4.275831445896958607E-31, -1.000000000000000000, -1.224646799147353207E-16 ) ) ;
#40 = CALENDAR_DATE ( 2021, 1, 11 ) ;
#41 = ADVANCED_FACE ( 'NONE', ( #207 ), #107, .F. ) ;
#42 = COORDINATED_UNIVERSAL_TIME_OFFSET ( 1, 0, .AHEAD. ) ;
#43 = APPROVAL_PERSON_ORGANIZATION ( #130, #108, #117 ) ;
#44 = VERTEX_POINT ( 'NONE', #131 ) ;
#45 = CLOSED_SHELL ( 'NONE', ( #101, #176, #62, #129, #41 ) ) ;
#46 = CIRCLE ( 'NONE', #219, 2.499999999999998668 ) ;
#47 = APPROVAL ( #216, 'UNSPECIFIED' ) ;
#48 = CARTESIAN_POINT ( 'NONE',  ( 3.491481338843132724E-14, -1.227517819005650763E-15, 9.999999999999998224 ) ) ;
#49 = LOCAL_TIME ( 10, 45, 33.00000000000000000, #181 ) ;
#50 = EDGE_LOOP ( 'NONE', ( #87 ) ) ;
#51 = DIRECTION ( 'NONE',  ( -3.491481338843133355E-15, 1.224646799147353207E-16, -1.000000000000000000 ) ) ;
#52 = FACE_OUTER_BOUND ( 'NONE', #85, .T. ) ;
#53 = FACE_OUTER_BOUND ( 'NONE', #9, .T. ) ;
#54 = ADVANCED_FACE ( 'NONE', ( #154, #52 ), #74, .T. ) ;
#55 = DIRECTION ( 'NONE',  ( -3.491481338843133355E-15, 1.224646799147353207E-16, -1.000000000000000000 ) ) ;
#56 = CC_DESIGN_APPROVAL ( #108, ( #93 ) ) ;
#57 = DIRECTION ( 'NONE',  ( -3.491481338843133355E-15, 1.224646799147353207E-16, -1.000000000000000000 ) ) ;
#58 = DIRECTION ( 'NONE',  ( 0.0000000000000000000, 0.0000000000000000000, 1.000000000000000000 ) ) ;
#59 = APPLICATION_PROTOCOL_DEFINITION ( 'international standard', 'config_control_design', 1994, #150 ) ;
#60 = APPROVAL_STATUS ( 'not_yet_approved' ) ;
#61 = PERSON_AND_ORGANIZATION ( #116, #173 ) ;
#62 = ADVANCED_FACE ( 'NONE', ( #53 ), #124, .F. ) ;
#63 = EDGE_LOOP ( 'NONE', ( #10 ) ) ;
#64 = ORIENTED_EDGE ( 'NONE', *, *, #23, .T. ) ;
#65 = AXIS2_PLACEMENT_3D ( 'NONE', #194, #175, #32 ) ;
#66 = PRODUCT_DEFINITION_FORMATION_WITH_SPECIFIED_SOURCE ( 'ANY', '', #37, .NOT_KNOWN. ) ;
#67 = COORDINATED_UNIVERSAL_TIME_OFFSET ( 1, 0, .AHEAD. ) ;
#68 = CC_DESIGN_APPROVAL ( #47, ( #66 ) ) ;
#69 = VERTEX_POINT ( 'NONE', #171 ) ;
#70 = ADVANCED_FACE ( 'NONE', ( #223 ), #111, .F. ) ;
#71 = AXIS2_PLACEMENT_3D ( 'NONE', #14, #127, #76 ) ;
#72 = DIRECTION ( 'NONE',  ( 4.275831445896959482E-31, 1.000000000000000000, 1.224646799147353207E-16 ) ) ;
#73 = DIRECTION ( 'NONE',  ( 3.491481338843133355E-15, -1.227517819005651059E-16, 1.000000000000000000 ) ) ;
#74 = CYLINDRICAL_SURFACE ( 'NONE', #166, 2.499999999999999556 ) ;
#75 = AXIS2_PLACEMENT_3D ( 'NONE', #33, #177, #221 ) ;
#76 = DIRECTION ( 'NONE',  ( 4.275831445896958607E-31, 1.000000000000000000, 1.224646799147353207E-16 ) ) ;
#77 = PERSON_AND_ORGANIZATION ( #116, #173 ) ;
#78 = APPROVAL_PERSON_ORGANIZATION ( #217, #161, #96 ) ;
#79 = PERSON_AND_ORGANIZATION ( #116, #173 ) ;
#80 = CARTESIAN_POINT ( 'NONE',  ( 3.491481338843132724E-14, -2.500000000000001332, 9.999999999999998224 ) ) ;
#81 = ORIENTED_EDGE ( 'NONE', *, *, #19, .T. ) ;
#82 = DIRECTION ( 'NONE',  ( -3.491481338843133355E-15, 1.224646799147353207E-16, -1.000000000000000000 ) ) ;
#83 = EDGE_CURVE ( 'NONE', #2, #2, #86, .T. ) ;
#84 = EDGE_LOOP ( 'NONE', ( #169 ) ) ;
#85 = EDGE_LOOP ( 'NONE', ( #132 ) ) ;
#86 = CIRCLE ( 'NONE', #65, 3.000000000000000000 ) ;
#87 = ORIENTED_EDGE ( 'NONE', *, *, #141, .F. ) ;
#88 = PRODUCT_RELATED_PRODUCT_CATEGORY ( 'detail', '', ( #37 ) ) ;
#89 = CARTESIAN_POINT ( 'NONE',  ( 1.990144363140586139E-13, 2.399999999999995914, 57.00000000000000000 ) ) ;
#90 = DIRECTION ( 'NONE',  ( 3.491481338843133355E-15, -1.224646799147353207E-16, 1.000000000000000000 ) ) ;
#91 =( GEOMETRIC_REPRESENTATION_CONTEXT ( 3 ) GLOBAL_UNCERTAINTY_ASSIGNED_CONTEXT ( ( #121 ) ) GLOBAL_UNIT_ASSIGNED_CONTEXT ( ( #24, #98, #178 ) ) REPRESENTATION_CONTEXT ( 'NONE', 'WORKASPACE' ) );
#92 = DIRECTION ( 'NONE',  ( 0.0000000000000000000, 1.000000000000000000, 0.0000000000000000000 ) ) ;
#93 = SECURITY_CLASSIFICATION ( '', '', #4 ) ;
#94 = CARTESIAN_POINT ( 'NONE',  ( 3.491481338843132724E-14, -1.227517819005650763E-15, 9.999999999999998224 ) ) ;
#95 = CARTESIAN_POINT ( 'NONE',  ( 3.491481338843133355E-14, 2.249639673992782306E-32, 10.00000000000000000 ) ) ;
#96 = APPROVAL_ROLE ( '' ) ;
#97 = EDGE_CURVE ( 'NONE', #209, #209, #208, .T. ) ;
#98 =( NAMED_UNIT ( * ) PLANE_ANGLE_UNIT ( ) SI_UNIT ( $, .RADIAN. ) );
#99 = AXIS2_PLACEMENT_3D ( 'NONE', #172, #51, #157 ) ;
#100 = DATE_AND_TIME ( #40, #34 ) ;
#101 = ADVANCED_FACE ( 'NONE', ( #195, #136 ), #210, .T. ) ;
#102 = DATE_AND_TIME ( #164, #125 ) ;
#103 = EDGE_LOOP ( 'NONE', ( #133 ) ) ;
#104 = ADVANCED_BREP_SHAPE_REPRESENTATION ( '36247', ( #119, #192, #214 ), #91 ) ;
#105 = DIRECTION ( 'NONE',  ( 3.491481338843133355E-15, -1.227517819005651059E-16, 1.000000000000000000 ) ) ;
#106 = SHAPE_DEFINITION_REPRESENTATION ( #30, #104 ) ;
#107 = PLANE ( 'NONE',  #140 ) ;
#108 = APPROVAL ( #60, 'UNSPECIFIED' ) ;
#109 = DIRECTION ( 'NONE',  ( 3.491481338843133355E-15, -1.227517819005651059E-16, 1.000000000000000000 ) ) ;
#110 = CARTESIAN_POINT ( 'NONE',  ( 3.491481338843132724E-14, -1.734723475976807094E-15, 9.999999999999998224 ) ) ;
#111 = PLANE ( 'NONE',  #75 ) ;
#112 = DIRECTION ( 'NONE',  ( 1.000000000000000000, 0.0000000000000000000, 0.0000000000000000000 ) ) ;
#113 = CC_DESIGN_DATE_AND_TIME_ASSIGNMENT ( #5, #162, ( #93 ) ) ;
#114 = PERSON_AND_ORGANIZATION_ROLE ( 'classification_officer' ) ;
#115 = APPROVAL_DATE_TIME ( #165, #47 ) ;
#116 = PERSON ( 'UNSPECIFIED', 'UNSPECIFIED', 'UNSPECIFIED', ('UNSPECIFIED'), ('UNSPECIFIED'), ('UNSPECIFIED') ) ;
#117 = APPROVAL_ROLE ( '' ) ;
#118 = EDGE_LOOP ( 'NONE', ( #27 ) ) ;
#119 = MANIFOLD_SOLID_BREP ( 'Corps-Déplacer/Copier1[1]', #45 ) ;
#120 = CIRCLE ( 'NONE', #184, 2.500000000000000000 ) ;
#121 = UNCERTAINTY_MEASURE_WITH_UNIT (LENGTH_MEASURE( 1.000000000000000082E-05 ), #24, 'distance_accuracy_value', 'NONE');
#122 = FACE_OUTER_BOUND ( 'NONE', #29, .T. ) ;
#123 = CARTESIAN_POINT ( 'NONE',  ( 3.491481338843133355E-14, 2.249639673992782306E-32, 10.00000000000000000 ) ) ;
#124 = PLANE ( 'NONE',  #71 ) ;
#125 = LOCAL_TIME ( 10, 45, 33.00000000000000000, #42 ) ;
#126 = CARTESIAN_POINT ( 'NONE',  ( 4.463468607437974179E-14, 2.999999999999997780, 12.78388218141500587 ) ) ;
#127 = DIRECTION ( 'NONE',  ( -3.491481338843133355E-15, 1.224646799147353207E-16, -1.000000000000000000 ) ) ;
#128 = CC_DESIGN_PERSON_AND_ORGANIZATION_ASSIGNMENT ( #77, #114, ( #93 ) ) ;
#129 = ADVANCED_FACE ( 'NONE', ( #137, #122 ), #146, .F. ) ;
#130 = PERSON_AND_ORGANIZATION ( #116, #173 ) ;
#131 = CARTESIAN_POINT ( 'NONE',  ( -2.142927779077825589E-30, -2.499999999999998668, -6.137589095028251842E-16 ) ) ;
#132 = ORIENTED_EDGE ( 'NONE', *, *, #23, .F. ) ;
#133 = ORIENTED_EDGE ( 'NONE', *, *, #83, .F. ) ;
#134 = AXIS2_PLACEMENT_3D ( 'NONE', #18, #57, #92 ) ;
#135 = EDGE_CURVE ( 'NONE', #153, #153, #193, .T. ) ;
#136 = FACE_OUTER_BOUND ( 'NONE', #103, .T. ) ;
#137 = FACE_OUTER_BOUND ( 'NONE', #200, .T. ) ;
#138 = PLANE ( 'NONE',  #28 ) ;
#139 = FACE_BOUND ( 'NONE', #118, .T. ) ;
#140 = AXIS2_PLACEMENT_3D ( 'NONE', #123, #90, #155 ) ;
#141 = EDGE_CURVE ( 'NONE', #44, #44, #46, .T. ) ;
#142 = CARTESIAN_POINT ( 'NONE',  ( 0.0000000000000000000, 0.0000000000000000000, 0.0000000000000000000 ) ) ;
#143 = DATE_TIME_ROLE ( 'creation_date' ) ;
#144 = APPLICATION_PROTOCOL_DEFINITION ( 'international standard', 'config_control_design', 1994, #158 ) ;
#145 = APPROVAL_DATE_TIME ( #100, #161 ) ;
#146 = TOROIDAL_SURFACE ( 'NONE', #179, 10.50000000000000000, 8.000000000000000000 ) ;
#147 = APPROVAL_DATE_TIME ( #167, #108 ) ;
#148 = DIRECTION ( 'NONE',  ( 0.0000000000000000000, 1.000000000000000000, 0.0000000000000000000 ) ) ;
#149 = EDGE_LOOP ( 'NONE', ( #64 ) ) ;
#150 = APPLICATION_CONTEXT ( 'configuration controlled 3d designs of mechanical parts and assemblies' ) ;
#151 = DIRECTION ( 'NONE',  ( 0.0000000000000000000, -1.000000000000000000, 0.0000000000000000000 ) ) ;
#152 = EDGE_LOOP ( 'NONE', ( #220 ) ) ;
#153 = VERTEX_POINT ( 'NONE', #80 ) ;
#154 = FACE_OUTER_BOUND ( 'NONE', #84, .T. ) ;
#155 = DIRECTION ( 'NONE',  ( -4.275831445896958607E-31, -1.000000000000000000, -1.224646799147353207E-16 ) ) ;
#156 = CARTESIAN_POINT ( 'NONE',  ( 3.491481338843132724E-14, -2.500000000000001332, 9.999999999999998224 ) ) ;
#157 = DIRECTION ( 'NONE',  ( 0.0000000000000000000, 1.000000000000000000, 0.0000000000000000000 ) ) ;
#158 = APPLICATION_CONTEXT ( 'configuration controlled 3d designs of mechanical parts and assemblies' ) ;
#159 = PERSON_AND_ORGANIZATION_ROLE ( 'design_supplier' ) ;
#160 = CALENDAR_DATE ( 2021, 1, 11 ) ;
#161 = APPROVAL ( #26, 'UNSPECIFIED' ) ;
#162 = DATE_TIME_ROLE ( 'classification_date' ) ;
#163 = CC_DESIGN_APPROVAL ( #161, ( #180 ) ) ;
#164 = CALENDAR_DATE ( 2021, 1, 11 ) ;
#165 = DATE_AND_TIME ( #7, #35 ) ;
#166 = AXIS2_PLACEMENT_3D ( 'NONE', #206, #191, #36 ) ;
#167 = DATE_AND_TIME ( #8, #215 ) ;
#168 = ORIENTED_EDGE ( 'NONE', *, *, #135, .T. ) ;
#169 = ORIENTED_EDGE ( 'NONE', *, *, #141, .T. ) ;
#170 = CC_DESIGN_PERSON_AND_ORGANIZATION_ASSIGNMENT ( #61, #197, ( #180 ) ) ;
#171 = CARTESIAN_POINT ( 'NONE',  ( 1.969195475107527212E-13, 2.999999999999995559, 56.39999999999999858 ) ) ;
#172 = CARTESIAN_POINT ( 'NONE',  ( 1.990144363140586139E-13, -6.980486755139912911E-15, 57.00000000000000000 ) ) ;
#173 = ORGANIZATION ( 'UNSPECIFIED', 'UNSPECIFIED', '' ) ;
#174 = DIRECTION ( 'NONE',  ( 0.0000000000000000000, -1.000000000000000000, 0.0000000000000000000 ) ) ;
#175 = DIRECTION ( 'NONE',  ( -3.491481338843133355E-15, 1.227517819005651059E-16, -1.000000000000000000 ) ) ;
#176 = ADVANCED_FACE ( 'NONE', ( #13, #139 ), #222, .T. ) ;
#177 = DIRECTION ( 'NONE',  ( 3.491481338843133355E-15, -1.224646799147353207E-16, 1.000000000000000000 ) ) ;
#178 =( NAMED_UNIT ( * ) SI_UNIT ( $, .STERADIAN. ) SOLID_ANGLE_UNIT ( ) );
#179 = AXIS2_PLACEMENT_3D ( 'NONE', #110, #3, #205 ) ;
#180 = PRODUCT_DEFINITION ( 'UNKNOWN', '', #66, #31 ) ;
#181 = COORDINATED_UNIVERSAL_TIME_OFFSET ( 1, 0, .AHEAD. ) ;
#182 = APPROVAL_ROLE ( '' ) ;
#183 = COORDINATED_UNIVERSAL_TIME_OFFSET ( 1, 0, .AHEAD. ) ;
#184 = AXIS2_PLACEMENT_3D ( 'NONE', #48, #105, #151 ) ;
#185 = MECHANICAL_CONTEXT ( 'NONE', #150, 'mechanical' ) ;
#186 = CC_DESIGN_SECURITY_CLASSIFICATION ( #93, ( #66 ) ) ;
#187 = EDGE_LOOP ( 'NONE', ( #81 ) ) ;
#188 = ORIENTED_EDGE ( 'NONE', *, *, #97, .F. ) ;
#189 = ORIENTED_EDGE ( 'NONE', *, *, #83, .T. ) ;
#190 = CARTESIAN_POINT ( 'NONE',  ( -1.071463889538912794E-30, 1.512091724654242064E-32, -3.068794547514125921E-16 ) ) ;
#191 = DIRECTION ( 'NONE',  ( 3.491481338843133355E-15, -1.227517819005651059E-16, 1.000000000000000000 ) ) ;
#192 = MANIFOLD_SOLID_BREP ( 'Corps-Déplacer/Copier1[2]', #201 ) ;
#193 = CIRCLE ( 'NONE', #198, 2.500000000000000000 ) ;
#194 = CARTESIAN_POINT ( 'NONE',  ( 4.463468607437974179E-14, -2.076449974346731714E-15, 12.78388218141500587 ) ) ;
#195 = FACE_OUTER_BOUND ( 'NONE', #187, .T. ) ;
#196 = COORDINATED_UNIVERSAL_TIME_OFFSET ( 1, 0, .AHEAD. ) ;
#197 = PERSON_AND_ORGANIZATION_ROLE ( 'creator' ) ;
#198 = AXIS2_PLACEMENT_3D ( 'NONE', #94, #109, #174 ) ;
#199 = CARTESIAN_POINT ( 'NONE',  ( 0.0000000000000000000, 0.0000000000000000000, 0.0000000000000000000 ) ) ;
#200 = EDGE_LOOP ( 'NONE', ( #168 ) ) ;
#201 = CLOSED_SHELL ( 'NONE', ( #218, #54, #70 ) ) ;
#202 = CARTESIAN_POINT ( 'NONE',  ( 1.969195475107527212E-13, -6.907007947191071980E-15, 56.39999999999999858 ) ) ;
#203 = CC_DESIGN_PERSON_AND_ORGANIZATION_ASSIGNMENT ( #79, #20, ( #37 ) ) ;
#204 = APPROVAL_PERSON_ORGANIZATION ( #211, #47, #182 ) ;
#205 = DIRECTION ( 'NONE',  ( -4.343272410919458453E-31, -1.000000000000000000, -1.227517819005651059E-16 ) ) ;
#206 = CARTESIAN_POINT ( 'NONE',  ( -6.413731847436034514E-31, 0.0000000000000000000, -1.836965810494968570E-16 ) ) ;
#207 = FACE_OUTER_BOUND ( 'NONE', #152, .T. ) ;
#208 = CIRCLE ( 'NONE', #99, 2.400000000000003020 ) ;
#209 = VERTEX_POINT ( 'NONE', #89 ) ;
#210 = CYLINDRICAL_SURFACE ( 'NONE', #15, 3.000000000000000000 ) ;
#211 = PERSON_AND_ORGANIZATION ( #116, #173 ) ;
#212 = CC_DESIGN_DATE_AND_TIME_ASSIGNMENT ( #102, #143, ( #180 ) ) ;
#213 = PERSON_AND_ORGANIZATION ( #116, #173 ) ;
#214 = AXIS2_PLACEMENT_3D ( 'NONE', #199, #58, #112 ) ;
#215 = LOCAL_TIME ( 10, 45, 33.00000000000000000, #67 ) ;
#216 = APPROVAL_STATUS ( 'not_yet_approved' ) ;
#217 = PERSON_AND_ORGANIZATION ( #116, #173 ) ;
#218 = ADVANCED_FACE ( 'NONE', ( #1 ), #138, .T. ) ;
#219 = AXIS2_PLACEMENT_3D ( 'NONE', #190, #73, #16 ) ;
#220 = ORIENTED_EDGE ( 'NONE', *, *, #135, .F. ) ;
#221 = DIRECTION ( 'NONE',  ( -4.275831445896958607E-31, -1.000000000000000000, -1.224646799147353207E-16 ) ) ;
#222 = CONICAL_SURFACE ( 'NONE', #134, 2.400000000000003020, 0.7853981633974453924 ) ;
#223 = FACE_OUTER_BOUND ( 'NONE', #50, .T. ) ;
ENDSEC;
END-ISO-10303-21;
