ISO-10303-21;
HEADER;
FILE_DESCRIPTION (( 'STEP AP203' ),
    '1' );
FILE_NAME ('36242.step',
    '2021-11-01T09:45:33',
    ( '' ),
    ( '' ),
    'SwSTEP 2.0',
    'SolidWorks 2019',
    '' );
FILE_SCHEMA (( 'CONFIG_CONTROL_DESIGN' ));
ENDSEC;

DATA;
#1 = AXIS2_PLACEMENT_3D ( 'NONE', #159, #156, #13 ) ;
#2 = LOCAL_TIME ( 10, 45, 33.00000000000000000, #93 ) ;
#3 = CYLINDRICAL_SURFACE ( 'NONE', #193, 1.250000000000000000 ) ;
#4 = EDGE_LOOP ( 'NONE', ( #75 ) ) ;
#5 = PERSON_AND_ORGANIZATION ( #178, #84 ) ;
#6 = ORIENTED_EDGE ( 'NONE', *, *, #135, .F. ) ;
#7 = DATE_AND_TIME ( #168, #102 ) ;
#8 = ORIENTED_EDGE ( 'NONE', *, *, #179, .F. ) ;
#9 = CALENDAR_DATE ( 2021, 1, 11 ) ;
#10 = ADVANCED_FACE ( 'NONE', ( #201, #105 ), #3, .T. ) ;
#11 = ORIENTED_EDGE ( 'NONE', *, *, #45, .F. ) ;
#12 = VERTEX_POINT ( 'NONE', #217 ) ;
#13 = DIRECTION ( 'NONE',  ( -4.275831445896958607E-31, -1.000000000000000000, -1.224646799147353207E-16 ) ) ;
#14 = DIRECTION ( 'NONE',  ( 0.0000000000000000000, 1.000000000000000000, 0.0000000000000000000 ) ) ;
#15 = DIRECTION ( 'NONE',  ( -4.285855558155653280E-31, -1.000000000000000000, -1.227517819005651059E-16 ) ) ;
#16 = FACE_OUTER_BOUND ( 'NONE', #171, .T. ) ;
#17 = SECURITY_CLASSIFICATION ( '', '', #50 ) ;
#18 = APPROVAL_PERSON_ORGANIZATION ( #37, #68, #134 ) ;
#19 = CALENDAR_DATE ( 2021, 1, 11 ) ;
#20 = LOCAL_TIME ( 10, 45, 33.00000000000000000, #188 ) ;
#21 = DESIGN_CONTEXT ( 'detailed design', #85, 'design' ) ;
#22 = APPROVAL_DATE_TIME ( #196, #57 ) ;
#23 = FACE_OUTER_BOUND ( 'NONE', #212, .T. ) ;
#24 = AXIS2_PLACEMENT_3D ( 'NONE', #155, #116, #14 ) ;
#25 = CARTESIAN_POINT ( 'NONE',  ( 0.0000000000000000000, 0.0000000000000000000, 0.0000000000000000000 ) ) ;
#26 = CARTESIAN_POINT ( 'NONE',  ( 2.444036937190193033E-14, -1.250000000000001110, 6.999999999999999112 ) ) ;
#27 = CARTESIAN_POINT ( 'NONE',  ( -5.357319447694565724E-31, -3.714082703162443461E-33, -1.534397273757063453E-16 ) ) ;
#28 = FACE_OUTER_BOUND ( 'NONE', #197, .T. ) ;
#29 = CIRCLE ( 'NONE', #137, 1.250000000000000222 ) ;
#30 = LOCAL_TIME ( 10, 45, 33.00000000000000000, #162 ) ;
#31 = DIRECTION ( 'NONE',  ( -4.275831445896958607E-31, -1.000000000000000000, -1.224646799147353207E-16 ) ) ;
#32 = DIRECTION ( 'NONE',  ( 0.0000000000000000000, -1.000000000000000000, 0.0000000000000000000 ) ) ;
#33 = CC_DESIGN_PERSON_AND_ORGANIZATION_ASSIGNMENT ( #151, #211, ( #143 ) ) ;
#34 = ADVANCED_FACE ( 'NONE', ( #23, #73 ), #205, .T. ) ;
#35 = AXIS2_PLACEMENT_3D ( 'NONE', #48, #172, #218 ) ;
#36 = EDGE_LOOP ( 'NONE', ( #54 ) ) ;
#37 = PERSON_AND_ORGANIZATION ( #178, #84 ) ;
#38 = UNCERTAINTY_MEASURE_WITH_UNIT (LENGTH_MEASURE( 1.000000000000000082E-05 ), #163, 'distance_accuracy_value', 'NONE');
#39 = CARTESIAN_POINT ( 'NONE',  ( 1.326762908760390423E-13, 1.199999999999989297, 38.00000000000000000 ) ) ;
#40 = EDGE_LOOP ( 'NONE', ( #92 ) ) ;
#41 = MECHANICAL_CONTEXT ( 'NONE', #124, 'mechanical' ) ;
#42 = DIRECTION ( 'NONE',  ( 0.0000000000000000000, 1.000000000000000000, 0.0000000000000000000 ) ) ;
#43 = VERTEX_POINT ( 'NONE', #213 ) ;
#44 = DIRECTION ( 'NONE',  ( -3.491481338843133355E-15, 1.224646799147353207E-16, -1.000000000000000000 ) ) ;
#45 = EDGE_CURVE ( 'NONE', #147, #147, #209, .T. ) ;
#46 = PLANE ( 'NONE',  #144 ) ;
#47 = AXIS2_PLACEMENT_3D ( 'NONE', #27, #192, #15 ) ;
#48 = CARTESIAN_POINT ( 'NONE',  ( 1.326762908760390423E-13, -4.653657836759941941E-15, 38.00000000000000000 ) ) ;
#49 = DIRECTION ( 'NONE',  ( 4.275831445896958607E-31, 1.000000000000000000, 1.224646799147353207E-16 ) ) ;
#50 = SECURITY_CLASSIFICATION_LEVEL ( 'unclassified' ) ;
#51 = CALENDAR_DATE ( 2021, 1, 11 ) ;
#52 = PRODUCT_RELATED_PRODUCT_CATEGORY ( 'detail', '', ( #176 ) ) ;
#53 = PERSON_AND_ORGANIZATION_ROLE ( 'design_owner' ) ;
#54 = ORIENTED_EDGE ( 'NONE', *, *, #130, .T. ) ;
#55 = PRODUCT_DEFINITION_SHAPE ( 'NONE', 'NONE',  #143 ) ;
#56 =( NAMED_UNIT ( * ) SI_UNIT ( $, .STERADIAN. ) SOLID_ANGLE_UNIT ( ) );
#57 = APPROVAL ( #70, 'UNSPECIFIED' ) ;
#58 = COORDINATED_UNIVERSAL_TIME_OFFSET ( 1, 0, .AHEAD. ) ;
#59 = EDGE_LOOP ( 'NONE', ( #164 ) ) ;
#60 = APPLICATION_PROTOCOL_DEFINITION ( 'international standard', 'config_control_design', 1994, #85 ) ;
#61 = CARTESIAN_POINT ( 'NONE',  ( 0.0000000000000000000, 0.0000000000000000000, 0.0000000000000000000 ) ) ;
#62 = PLANE ( 'NONE',  #214 ) ;
#63 = CARTESIAN_POINT ( 'NONE',  ( 2.444036937190193033E-14, -8.592624733039555931E-16, 6.999999999999999112 ) ) ;
#64 = DIRECTION ( 'NONE',  ( -4.275831445896958607E-31, -1.000000000000000000, -1.224646799147353207E-16 ) ) ;
#65 = APPROVAL_STATUS ( 'not_yet_approved' ) ;
#66 = ADVANCED_BREP_SHAPE_REPRESENTATION ( '36242', ( #146, #67, #117 ), #181 ) ;
#67 = MANIFOLD_SOLID_BREP ( 'Corps-Déplacer/Copier1[2]', #185 ) ;
#68 = APPROVAL ( #198, 'UNSPECIFIED' ) ;
#69 = EDGE_LOOP ( 'NONE', ( #6 ) ) ;
#70 = APPROVAL_STATUS ( 'not_yet_approved' ) ;
#71 = ORIENTED_EDGE ( 'NONE', *, *, #119, .T. ) ;
#72 = PERSON_AND_ORGANIZATION_ROLE ( 'design_supplier' ) ;
#73 = FACE_OUTER_BOUND ( 'NONE', #59, .T. ) ;
#74 = PERSON_AND_ORGANIZATION ( #178, #84 ) ;
#75 = ORIENTED_EDGE ( 'NONE', *, *, #45, .T. ) ;
#76 = CARTESIAN_POINT ( 'NONE',  ( 1.326762908760390423E-13, 8.998558695971030697E-33, 38.00000000000000000 ) ) ;
#77 = APPROVAL_ROLE ( '' ) ;
#78 = CARTESIAN_POINT ( 'NONE',  ( 2.444036937190193349E-14, 1.124819836996384448E-32, 7.000000000000000000 ) ) ;
#79 = FACE_OUTER_BOUND ( 'NONE', #131, .T. ) ;
#80 = EDGE_CURVE ( 'NONE', #186, #186, #199, .T. ) ;
#81 = CC_DESIGN_SECURITY_CLASSIFICATION ( #17, ( #149 ) ) ;
#82 = SHAPE_DEFINITION_REPRESENTATION ( #55, #66 ) ;
#83 = CONICAL_SURFACE ( 'NONE', #35, 1.199999999999993738, 0.7853981633974453924 ) ;
#84 = ORGANIZATION ( 'UNSPECIFIED', 'UNSPECIFIED', '' ) ;
#85 = APPLICATION_CONTEXT ( 'configuration controlled 3d designs of mechanical parts and assemblies' ) ;
#86 = DATE_TIME_ROLE ( 'creation_date' ) ;
#87 = ORIENTED_EDGE ( 'NONE', *, *, #179, .T. ) ;
#88 = PERSON_AND_ORGANIZATION ( #178, #84 ) ;
#89 = AXIS2_PLACEMENT_3D ( 'NONE', #63, #138, #32 ) ;
#90 = DIRECTION ( 'NONE',  ( 0.0000000000000000000, 0.0000000000000000000, 1.000000000000000000 ) ) ;
#91 = ORIENTED_EDGE ( 'NONE', *, *, #80, .F. ) ;
#92 = ORIENTED_EDGE ( 'NONE', *, *, #80, .T. ) ;
#93 = COORDINATED_UNIVERSAL_TIME_OFFSET ( 1, 0, .AHEAD. ) ;
#94 = APPROVAL ( #65, 'UNSPECIFIED' ) ;
#95 = DIRECTION ( 'NONE',  ( -4.347433052424081572E-31, -1.000000000000000000, -1.227517819005651059E-16 ) ) ;
#96 = AXIS2_PLACEMENT_3D ( 'NONE', #61, #136, #49 ) ;
#97 = PLANE ( 'NONE',  #158 ) ;
#98 = DIRECTION ( 'NONE',  ( -3.491481338843133355E-15, 1.224646799147353207E-16, -1.000000000000000000 ) ) ;
#99 = CC_DESIGN_DATE_AND_TIME_ASSIGNMENT ( #154, #86, ( #143 ) ) ;
#100 = FACE_OUTER_BOUND ( 'NONE', #169, .T. ) ;
#101 = AXIS2_PLACEMENT_3D ( 'NONE', #114, #189, #95 ) ;
#102 = LOCAL_TIME ( 10, 45, 33.00000000000000000, #58 ) ;
#103 = DATE_TIME_ROLE ( 'classification_date' ) ;
#104 = ADVANCED_FACE ( 'NONE', ( #79, #206 ), #83, .T. ) ;
#105 = FACE_OUTER_BOUND ( 'NONE', #187, .T. ) ;
#106 = APPROVAL_PERSON_ORGANIZATION ( #74, #57, #152 ) ;
#107 = DIRECTION ( 'NONE',  ( 3.491481338843133355E-15, -1.227517819005651059E-16, 1.000000000000000000 ) ) ;
#108 = ADVANCED_FACE ( 'NONE', ( #139 ), #121, .F. ) ;
#109 = APPLICATION_PROTOCOL_DEFINITION ( 'international standard', 'config_control_design', 1994, #124 ) ;
#110 = AXIS2_PLACEMENT_3D ( 'NONE', #221, #98, #219 ) ;
#111 = EDGE_LOOP ( 'NONE', ( #71 ) ) ;
#112 = CC_DESIGN_PERSON_AND_ORGANIZATION_ASSIGNMENT ( #170, #53, ( #176 ) ) ;
#113 = APPROVAL_DATE_TIME ( #7, #68 ) ;
#114 = CARTESIAN_POINT ( 'NONE',  ( 2.444036937190193033E-14, 0.0000000000000000000, 6.999999999999999112 ) ) ;
#115 = CARTESIAN_POINT ( 'NONE',  ( -1.071463889538913145E-30, -1.249999999999999778, -3.068794547514126907E-16 ) ) ;
#116 = DIRECTION ( 'NONE',  ( -3.491481338843133355E-15, 1.224646799147353207E-16, -1.000000000000000000 ) ) ;
#117 = AXIS2_PLACEMENT_3D ( 'NONE', #25, #90, #200 ) ;
#118 = CARTESIAN_POINT ( 'NONE',  ( -1.282754905350004587E-30, 4.499298539707956128E-32, -3.673956068672651857E-16 ) ) ;
#119 = EDGE_CURVE ( 'NONE', #12, #12, #123, .T. ) ;
#120 = CARTESIAN_POINT ( 'NONE',  ( 2.444036937190193033E-14, -8.592624733039555931E-16, 6.999999999999999112 ) ) ;
#121 = PLANE ( 'NONE',  #1 ) ;
#122 = PERSON_AND_ORGANIZATION ( #178, #84 ) ;
#123 = CIRCLE ( 'NONE', #127, 1.499999999999991784 ) ;
#124 = APPLICATION_CONTEXT ( 'configuration controlled 3d designs of mechanical parts and assemblies' ) ;
#125 = CIRCLE ( 'NONE', #24, 1.499999999999993783 ) ;
#126 = ADVANCED_FACE ( 'NONE', ( #16 ), #62, .F. ) ;
#127 = AXIS2_PLACEMENT_3D ( 'NONE', #203, #204, #42 ) ;
#128 = CC_DESIGN_APPROVAL ( #57, ( #149 ) ) ;
#129 = CALENDAR_DATE ( 2021, 1, 11 ) ;
#130 = EDGE_CURVE ( 'NONE', #202, #202, #29, .T. ) ;
#131 = EDGE_LOOP ( 'NONE', ( #8 ) ) ;
#132 = CARTESIAN_POINT ( 'NONE',  ( 2.444036937190193033E-14, -1.250000000000001110, 6.999999999999999112 ) ) ;
#133 = APPROVAL_PERSON_ORGANIZATION ( #140, #94, #77 ) ;
#134 = APPROVAL_ROLE ( '' ) ;
#135 = EDGE_CURVE ( 'NONE', #184, #184, #195, .T. ) ;
#136 = DIRECTION ( 'NONE',  ( -3.491481338843133355E-15, 1.224646799147353207E-16, -1.000000000000000000 ) ) ;
#137 = AXIS2_PLACEMENT_3D ( 'NONE', #120, #175, #157 ) ;
#138 = DIRECTION ( 'NONE',  ( 3.491481338843133355E-15, -1.227517819005651059E-16, 1.000000000000000000 ) ) ;
#139 = FACE_OUTER_BOUND ( 'NONE', #69, .T. ) ;
#140 = PERSON_AND_ORGANIZATION ( #178, #84 ) ;
#141 = CC_DESIGN_DATE_AND_TIME_ASSIGNMENT ( #194, #103, ( #17 ) ) ;
#142 = COORDINATED_UNIVERSAL_TIME_OFFSET ( 1, 0, .AHEAD. ) ;
#143 = PRODUCT_DEFINITION ( 'UNKNOWN', '', #149, #21 ) ;
#144 = AXIS2_PLACEMENT_3D ( 'NONE', #78, #174, #64 ) ;
#145 = CC_DESIGN_APPROVAL ( #94, ( #17 ) ) ;
#146 = MANIFOLD_SOLID_BREP ( 'Corps-Déplacer/Copier1[1]', #210 ) ;
#147 = VERTEX_POINT ( 'NONE', #39 ) ;
#148 = CARTESIAN_POINT ( 'NONE',  ( -6.413731847436034514E-31, 0.0000000000000000000, -1.836965810494968570E-16 ) ) ;
#149 = PRODUCT_DEFINITION_FORMATION_WITH_SPECIFIED_SOURCE ( 'ANY', '', #176, .NOT_KNOWN. ) ;
#150 =( NAMED_UNIT ( * ) PLANE_ANGLE_UNIT ( ) SI_UNIT ( $, .RADIAN. ) );
#151 = PERSON_AND_ORGANIZATION ( #178, #84 ) ;
#152 = APPROVAL_ROLE ( '' ) ;
#153 = ORIENTED_EDGE ( 'NONE', *, *, #135, .T. ) ;
#154 = DATE_AND_TIME ( #9, #2 ) ;
#155 = CARTESIAN_POINT ( 'NONE',  ( 1.316288464743861212E-13, -4.616918432785521081E-15, 37.69999999999999574 ) ) ;
#156 = DIRECTION ( 'NONE',  ( 3.491481338843133355E-15, -1.224646799147353207E-16, 1.000000000000000000 ) ) ;
#157 = DIRECTION ( 'NONE',  ( 0.0000000000000000000, -1.000000000000000000, 0.0000000000000000000 ) ) ;
#158 = AXIS2_PLACEMENT_3D ( 'NONE', #118, #191, #31 ) ;
#159 = CARTESIAN_POINT ( 'NONE',  ( 2.444036937190193349E-14, 1.124819836996384448E-32, 7.000000000000000000 ) ) ;
#160 = ADVANCED_FACE ( 'NONE', ( #100, #177 ), #222, .F. ) ;
#161 = LOCAL_TIME ( 10, 45, 33.00000000000000000, #142 ) ;
#162 = COORDINATED_UNIVERSAL_TIME_OFFSET ( 1, 0, .AHEAD. ) ;
#163 =( LENGTH_UNIT ( ) NAMED_UNIT ( * ) SI_UNIT ( .MILLI., .METRE. ) );
#164 = ORIENTED_EDGE ( 'NONE', *, *, #119, .F. ) ;
#165 = PERSON_AND_ORGANIZATION_ROLE ( 'creator' ) ;
#166 = DIRECTION ( 'NONE',  ( -4.285855558155654155E-31, -1.000000000000000000, -1.227517819005651059E-16 ) ) ;
#167 = CC_DESIGN_PERSON_AND_ORGANIZATION_ASSIGNMENT ( #122, #208, ( #17 ) ) ;
#168 = CALENDAR_DATE ( 2021, 1, 11 ) ;
#169 = EDGE_LOOP ( 'NONE', ( #153 ) ) ;
#170 = PERSON_AND_ORGANIZATION ( #178, #84 ) ;
#171 = EDGE_LOOP ( 'NONE', ( #11 ) ) ;
#172 = DIRECTION ( 'NONE',  ( -3.491481338843133355E-15, 1.224646799147353207E-16, -1.000000000000000000 ) ) ;
#173 = APPROVAL_DATE_TIME ( #207, #94 ) ;
#174 = DIRECTION ( 'NONE',  ( 3.491481338843133355E-15, -1.224646799147353207E-16, 1.000000000000000000 ) ) ;
#175 = DIRECTION ( 'NONE',  ( 3.491481338843133355E-15, -1.227517819005651059E-16, 1.000000000000000000 ) ) ;
#176 = PRODUCT ( '36242', '36242', '', ( #41 ) ) ;
#177 = FACE_OUTER_BOUND ( 'NONE', #111, .T. ) ;
#178 = PERSON ( 'UNSPECIFIED', 'UNSPECIFIED', 'UNSPECIFIED', ('UNSPECIFIED'), ('UNSPECIFIED'), ('UNSPECIFIED') ) ;
#179 = EDGE_CURVE ( 'NONE', #43, #43, #125, .T. ) ;
#180 = CC_DESIGN_PERSON_AND_ORGANIZATION_ASSIGNMENT ( #5, #72, ( #149 ) ) ;
#181 =( GEOMETRIC_REPRESENTATION_CONTEXT ( 3 ) GLOBAL_UNCERTAINTY_ASSIGNED_CONTEXT ( ( #38 ) ) GLOBAL_UNIT_ASSIGNED_CONTEXT ( ( #163, #150, #56 ) ) REPRESENTATION_CONTEXT ( 'NONE', 'WORKASPACE' ) );
#182 = ORIENTED_EDGE ( 'NONE', *, *, #130, .F. ) ;
#183 = ADVANCED_FACE ( 'NONE', ( #190 ), #46, .T. ) ;
#184 = VERTEX_POINT ( 'NONE', #132 ) ;
#185 = CLOSED_SHELL ( 'NONE', ( #183, #10, #220 ) ) ;
#186 = VERTEX_POINT ( 'NONE', #115 ) ;
#187 = EDGE_LOOP ( 'NONE', ( #182 ) ) ;
#188 = COORDINATED_UNIVERSAL_TIME_OFFSET ( 1, 0, .AHEAD. ) ;
#189 = DIRECTION ( 'NONE',  ( 3.491481338843133355E-15, -1.227517819005651059E-16, 1.000000000000000000 ) ) ;
#190 = FACE_OUTER_BOUND ( 'NONE', #36, .T. ) ;
#191 = DIRECTION ( 'NONE',  ( 3.491481338843133355E-15, -1.224646799147353207E-16, 1.000000000000000000 ) ) ;
#192 = DIRECTION ( 'NONE',  ( 3.491481338843133355E-15, -1.227517819005651059E-16, 1.000000000000000000 ) ) ;
#193 = AXIS2_PLACEMENT_3D ( 'NONE', #148, #107, #166 ) ;
#194 = DATE_AND_TIME ( #51, #30 ) ;
#195 = CIRCLE ( 'NONE', #89, 1.250000000000000222 ) ;
#196 = DATE_AND_TIME ( #129, #20 ) ;
#197 = EDGE_LOOP ( 'NONE', ( #91 ) ) ;
#198 = APPROVAL_STATUS ( 'not_yet_approved' ) ;
#199 = CIRCLE ( 'NONE', #47, 1.249999999999999778 ) ;
#200 = DIRECTION ( 'NONE',  ( 1.000000000000000000, 0.0000000000000000000, 0.0000000000000000000 ) ) ;
#201 = FACE_OUTER_BOUND ( 'NONE', #40, .T. ) ;
#202 = VERTEX_POINT ( 'NONE', #26 ) ;
#203 = CARTESIAN_POINT ( 'NONE',  ( 3.136856286925318039E-14, -2.435780159241981960E-16, 8.984313483298420167 ) ) ;
#204 = DIRECTION ( 'NONE',  ( -3.491481338843133355E-15, 1.227517819005651059E-16, -1.000000000000000000 ) ) ;
#205 = CYLINDRICAL_SURFACE ( 'NONE', #96, 1.499999999999991784 ) ;
#206 = FACE_BOUND ( 'NONE', #4, .T. ) ;
#207 = DATE_AND_TIME ( #19, #161 ) ;
#208 = PERSON_AND_ORGANIZATION_ROLE ( 'classification_officer' ) ;
#209 = CIRCLE ( 'NONE', #110, 1.199999999999993738 ) ;
#210 = CLOSED_SHELL ( 'NONE', ( #34, #104, #126, #160, #108 ) ) ;
#211 = PERSON_AND_ORGANIZATION_ROLE ( 'creator' ) ;
#212 = EDGE_LOOP ( 'NONE', ( #87 ) ) ;
#213 = CARTESIAN_POINT ( 'NONE',  ( 1.316288464743861212E-13, 1.499999999999989120, 37.69999999999999574 ) ) ;
#214 = AXIS2_PLACEMENT_3D ( 'NONE', #76, #44, #223 ) ;
#215 = CC_DESIGN_PERSON_AND_ORGANIZATION_ASSIGNMENT ( #88, #165, ( #149 ) ) ;
#216 = CC_DESIGN_APPROVAL ( #68, ( #143 ) ) ;
#217 = CARTESIAN_POINT ( 'NONE',  ( 3.136856286925318039E-14, 1.499999999999991562, 8.984313483298420167 ) ) ;
#218 = DIRECTION ( 'NONE',  ( 0.0000000000000000000, 1.000000000000000000, 0.0000000000000000000 ) ) ;
#219 = DIRECTION ( 'NONE',  ( 0.0000000000000000000, 1.000000000000000000, 0.0000000000000000000 ) ) ;
#220 = ADVANCED_FACE ( 'NONE', ( #28 ), #97, .F. ) ;
#221 = CARTESIAN_POINT ( 'NONE',  ( 1.326762908760390423E-13, -4.653657836759941941E-15, 38.00000000000000000 ) ) ;
#222 = TOROIDAL_SURFACE ( 'NONE', #101, 9.249999999999998224, 8.000000000000000000 ) ;
#223 = DIRECTION ( 'NONE',  ( 4.275831445896958607E-31, 1.000000000000000000, 1.224646799147353207E-16 ) ) ;
ENDSEC;
END-ISO-10303-21;
