ISO-10303-21;
HEADER;
FILE_DESCRIPTION (( 'STEP AP203' ),
    '1' );
FILE_NAME ('36240.step',
    '2021-11-01T09:45:32',
    ( '' ),
    ( '' ),
    'SwSTEP 2.0',
    'SolidWorks 2019',
    '' );
FILE_SCHEMA (( 'CONFIG_CONTROL_DESIGN' ));
ENDSEC;

DATA;
#1 = SECURITY_CLASSIFICATION_LEVEL ( 'unclassified' ) ;
#2 = PERSON ( 'UNSPECIFIED', 'UNSPECIFIED', 'UNSPECIFIED', ('UNSPECIFIED'), ('UNSPECIFIED'), ('UNSPECIFIED') ) ;
#3 = DIRECTION ( 'NONE',  ( 3.491481338843133355E-15, -1.224646799147353207E-16, 1.000000000000000000 ) ) ;
#4 = EDGE_CURVE ( 'NONE', #57, #57, #89, .T. ) ;
#5 = CYLINDRICAL_SURFACE ( 'NONE', #102, 0.7499999999999995559 ) ;
#6 = CC_DESIGN_APPROVAL ( #70, ( #137 ) ) ;
#7 = CARTESIAN_POINT ( 'NONE',  ( 1.326762908760390423E-13, -4.653657836759941941E-15, 38.00000000000000000 ) ) ;
#8 = DIRECTION ( 'NONE',  ( 3.491481338843133355E-15, -1.227517819005651059E-16, 1.000000000000000000 ) ) ;
#9 = DIRECTION ( 'NONE',  ( 0.0000000000000000000, -1.000000000000000000, 0.0000000000000000000 ) ) ;
#10 = EDGE_LOOP ( 'NONE', ( #202 ) ) ;
#11 = APPROVAL_PERSON_ORGANIZATION ( #204, #37, #115 ) ;
#12 = CARTESIAN_POINT ( 'NONE',  ( 1.326762908760390423E-13, 1.199999999999989297, 38.00000000000000000 ) ) ;
#13 = PERSON_AND_ORGANIZATION ( #2, #117 ) ;
#14 = VERTEX_POINT ( 'NONE', #12 ) ;
#15 = MECHANICAL_CONTEXT ( 'NONE', #172, 'mechanical' ) ;
#16 = CIRCLE ( 'NONE', #83, 1.499999999999991784 ) ;
#17 = APPROVAL_PERSON_ORGANIZATION ( #116, #52, #88 ) ;
#18 = APPROVAL_DATE_TIME ( #68, #70 ) ;
#19 = ADVANCED_FACE ( 'NONE', ( #73, #143 ), #5, .T. ) ;
#20 = APPROVAL_STATUS ( 'not_yet_approved' ) ;
#21 = ADVANCED_FACE ( 'NONE', ( #29 ), #91, .F. ) ;
#22 = PRODUCT_RELATED_PRODUCT_CATEGORY ( 'detail', '', ( #98 ) ) ;
#23 = CARTESIAN_POINT ( 'NONE',  ( 1.326762908760390423E-13, -4.653657836759941941E-15, 38.00000000000000000 ) ) ;
#24 = CYLINDRICAL_SURFACE ( 'NONE', #45, 1.499999999999991784 ) ;
#25 = CONICAL_SURFACE ( 'NONE', #79, 1.199999999999993738, 0.7853981633974453924 ) ;
#26 = FACE_BOUND ( 'NONE', #135, .T. ) ;
#27 = EDGE_LOOP ( 'NONE', ( #126 ) ) ;
#28 = ORIENTED_EDGE ( 'NONE', *, *, #56, .F. ) ;
#29 = FACE_OUTER_BOUND ( 'NONE', #36, .T. ) ;
#30 = SECURITY_CLASSIFICATION ( '', '', #1 ) ;
#31 = VERTEX_POINT ( 'NONE', #218 ) ;
#32 = ADVANCED_FACE ( 'NONE', ( #95, #26 ), #25, .T. ) ;
#33 = VERTEX_POINT ( 'NONE', #136 ) ;
#34 = ORIENTED_EDGE ( 'NONE', *, *, #87, .T. ) ;
#35 = COORDINATED_UNIVERSAL_TIME_OFFSET ( 1, 0, .AHEAD. ) ;
#36 = EDGE_LOOP ( 'NONE', ( #186 ) ) ;
#37 = APPROVAL ( #51, 'UNSPECIFIED' ) ;
#38 = AXIS2_PLACEMENT_3D ( 'NONE', #145, #158, #193 ) ;
#39 = CC_DESIGN_APPROVAL ( #37, ( #192 ) ) ;
#40 = CIRCLE ( 'NONE', #177, 1.499999999999993783 ) ;
#41 = AXIS2_PLACEMENT_3D ( 'NONE', #167, #100, #80 ) ;
#42 = DIRECTION ( 'NONE',  ( -3.491481338843133355E-15, 1.224646799147353207E-16, -1.000000000000000000 ) ) ;
#43 = FACE_OUTER_BOUND ( 'NONE', #131, .T. ) ;
#44 = DIRECTION ( 'NONE',  ( 3.491481338843133355E-15, -1.227517819005651059E-16, 1.000000000000000000 ) ) ;
#45 = AXIS2_PLACEMENT_3D ( 'NONE', #107, #94, #211 ) ;
#46 = PLANE ( 'NONE',  #176 ) ;
#47 = FACE_OUTER_BOUND ( 'NONE', #221, .T. ) ;
#48 = CC_DESIGN_PERSON_AND_ORGANIZATION_ASSIGNMENT ( #120, #71, ( #30 ) ) ;
#49 = DIRECTION ( 'NONE',  ( -4.365125093687772317E-31, -1.000000000000000000, -1.227517819005651059E-16 ) ) ;
#50 = ORIENTED_EDGE ( 'NONE', *, *, #4, .T. ) ;
#51 = APPROVAL_STATUS ( 'not_yet_approved' ) ;
#52 = APPROVAL ( #20, 'UNSPECIFIED' ) ;
#53 = MANIFOLD_SOLID_BREP ( 'Corps-Déplacer/Copier1[1]', #58 ) ;
#54 = AXIS2_PLACEMENT_3D ( 'NONE', #72, #162, #212 ) ;
#55 = PERSON_AND_ORGANIZATION ( #2, #117 ) ;
#56 = EDGE_CURVE ( 'NONE', #31, #31, #156, .T. ) ;
#57 = VERTEX_POINT ( 'NONE', #112 ) ;
#58 = CLOSED_SHELL ( 'NONE', ( #96, #32, #78, #182, #140 ) ) ;
#59 = DIRECTION ( 'NONE',  ( 3.491481338843133355E-15, -1.227517819005651059E-16, 1.000000000000000000 ) ) ;
#60 = FACE_OUTER_BOUND ( 'NONE', #97, .T. ) ;
#61 = CARTESIAN_POINT ( 'NONE',  ( 1.316288464743861212E-13, -4.616918432785521081E-15, 37.69999999999999574 ) ) ;
#62 = AXIS2_PLACEMENT_3D ( 'NONE', #200, #111, #49 ) ;
#63 = DIRECTION ( 'NONE',  ( -4.275831445896958607E-31, -1.000000000000000000, -1.224646799147353207E-16 ) ) ;
#64 = CC_DESIGN_DATE_AND_TIME_ASSIGNMENT ( #151, #146, ( #137 ) ) ;
#65 = COORDINATED_UNIVERSAL_TIME_OFFSET ( 1, 0, .AHEAD. ) ;
#66 = CARTESIAN_POINT ( 'NONE',  ( 1.047444401652939691E-14, -0.7499999999999995559, 2.999999999999999112 ) ) ;
#67 = ORIENTED_EDGE ( 'NONE', *, *, #118, .T. ) ;
#68 = DATE_AND_TIME ( #169, #154 ) ;
#69 = LOCAL_TIME ( 10, 45, 32.00000000000000000, #35 ) ;
#70 = APPROVAL ( #85, 'UNSPECIFIED' ) ;
#71 = PERSON_AND_ORGANIZATION_ROLE ( 'classification_officer' ) ;
#72 = CARTESIAN_POINT ( 'NONE',  ( 1.047444401652940007E-14, 1.124819836996384858E-32, 3.000000000000000000 ) ) ;
#73 = FACE_OUTER_BOUND ( 'NONE', #114, .T. ) ;
#74 = DATE_AND_TIME ( #124, #171 ) ;
#75 = DIRECTION ( 'NONE',  ( -4.285855558155653280E-31, -1.000000000000000000, -1.227517819005651059E-16 ) ) ;
#76 = DIRECTION ( 'NONE',  ( 0.0000000000000000000, 1.000000000000000000, 0.0000000000000000000 ) ) ;
#77 = ORIENTED_EDGE ( 'NONE', *, *, #133, .F. ) ;
#78 = ADVANCED_FACE ( 'NONE', ( #181 ), #173, .F. ) ;
#79 = AXIS2_PLACEMENT_3D ( 'NONE', #7, #194, #144 ) ;
#80 = DIRECTION ( 'NONE',  ( 1.000000000000000000, 0.0000000000000000000, 0.0000000000000000000 ) ) ;
#81 =( NAMED_UNIT ( * ) PLANE_ANGLE_UNIT ( ) SI_UNIT ( $, .RADIAN. ) );
#82 = ORIENTED_EDGE ( 'NONE', *, *, #118, .F. ) ;
#83 = AXIS2_PLACEMENT_3D ( 'NONE', #210, #125, #76 ) ;
#84 = PERSON_AND_ORGANIZATION ( #2, #117 ) ;
#85 = APPROVAL_STATUS ( 'not_yet_approved' ) ;
#86 = UNCERTAINTY_MEASURE_WITH_UNIT (LENGTH_MEASURE( 1.000000000000000082E-05 ), #147, 'distance_accuracy_value', 'NONE');
#87 = EDGE_CURVE ( 'NONE', #219, #219, #196, .T. ) ;
#88 = APPROVAL_ROLE ( '' ) ;
#89 = CIRCLE ( 'NONE', #170, 0.7499999999999997780 ) ;
#90 = COORDINATED_UNIVERSAL_TIME_OFFSET ( 1, 0, .AHEAD. ) ;
#91 = PLANE ( 'NONE',  #214 ) ;
#92 = CC_DESIGN_PERSON_AND_ORGANIZATION_ASSIGNMENT ( #55, #104, ( #192 ) ) ;
#93 = FACE_OUTER_BOUND ( 'NONE', #164, .T. ) ;
#94 = DIRECTION ( 'NONE',  ( -3.491481338843133355E-15, 1.224646799147353207E-16, -1.000000000000000000 ) ) ;
#95 = FACE_OUTER_BOUND ( 'NONE', #180, .T. ) ;
#96 = ADVANCED_FACE ( 'NONE', ( #93, #60 ), #24, .T. ) ;
#97 = EDGE_LOOP ( 'NONE', ( #77 ) ) ;
#98 = PRODUCT ( '36240', '36240', '', ( #15 ) ) ;
#99 = APPROVAL_ROLE ( '' ) ;
#100 = DIRECTION ( 'NONE',  ( 0.0000000000000000000, 0.0000000000000000000, 1.000000000000000000 ) ) ;
#101 = PRODUCT_DEFINITION_SHAPE ( 'NONE', 'NONE',  #137 ) ;
#102 = AXIS2_PLACEMENT_3D ( 'NONE', #123, #8, #75 ) ;
#103 = ADVANCED_FACE ( 'NONE', ( #161 ), #178, .T. ) ;
#104 = PERSON_AND_ORGANIZATION_ROLE ( 'design_supplier' ) ;
#105 = DIRECTION ( 'NONE',  ( 3.491481338843133355E-15, -1.224646799147353207E-16, 1.000000000000000000 ) ) ;
#106 = DIRECTION ( 'NONE',  ( -3.491481338843133355E-15, 1.224646799147353207E-16, -1.000000000000000000 ) ) ;
#107 = CARTESIAN_POINT ( 'NONE',  ( 0.0000000000000000000, 0.0000000000000000000, 0.0000000000000000000 ) ) ;
#108 = LOCAL_TIME ( 10, 45, 32.00000000000000000, #155 ) ;
#109 = EDGE_LOOP ( 'NONE', ( #34 ) ) ;
#110 = FACE_OUTER_BOUND ( 'NONE', #10, .T. ) ;
#111 = DIRECTION ( 'NONE',  ( 3.491481338843133355E-15, -1.227517819005651059E-16, 1.000000000000000000 ) ) ;
#112 = CARTESIAN_POINT ( 'NONE',  ( -6.428783337233478168E-31, -0.7499999999999997780, -1.841276728508476095E-16 ) ) ;
#113 = PERSON_AND_ORGANIZATION_ROLE ( 'creator' ) ;
#114 = EDGE_LOOP ( 'NONE', ( #50 ) ) ;
#115 = APPROVAL_ROLE ( '' ) ;
#116 = PERSON_AND_ORGANIZATION ( #2, #117 ) ;
#117 = ORGANIZATION ( 'UNSPECIFIED', 'UNSPECIFIED', '' ) ;
#118 = EDGE_CURVE ( 'NONE', #187, #187, #40, .T. ) ;
#119 = APPROVAL_DATE_TIME ( #205, #37 ) ;
#120 = PERSON_AND_ORGANIZATION ( #2, #117 ) ;
#121 = DATE_AND_TIME ( #152, #108 ) ;
#122 = CC_DESIGN_PERSON_AND_ORGANIZATION_ASSIGNMENT ( #84, #113, ( #137 ) ) ;
#123 = CARTESIAN_POINT ( 'NONE',  ( -6.413731847436034514E-31, 0.0000000000000000000, -1.836965810494968570E-16 ) ) ;
#124 = CALENDAR_DATE ( 2021, 1, 11 ) ;
#125 = DIRECTION ( 'NONE',  ( -3.491481338843133355E-15, 1.227517819005651059E-16, -1.000000000000000000 ) ) ;
#126 = ORIENTED_EDGE ( 'NONE', *, *, #141, .F. ) ;
#127 = DIRECTION ( 'NONE',  ( 0.0000000000000000000, 1.000000000000000000, 0.0000000000000000000 ) ) ;
#128 = LOCAL_TIME ( 10, 45, 32.00000000000000000, #223 ) ;
#129 = MANIFOLD_SOLID_BREP ( 'Corps-Déplacer/Copier1[2]', #142 ) ;
#130 = DIRECTION ( 'NONE',  ( -4.285855558155653280E-31, -1.000000000000000000, -1.227517819005651059E-16 ) ) ;
#131 = EDGE_LOOP ( 'NONE', ( #28 ) ) ;
#132 = APPROVAL_DATE_TIME ( #121, #52 ) ;
#133 = EDGE_CURVE ( 'NONE', #33, #33, #16, .T. ) ;
#134 = APPLICATION_PROTOCOL_DEFINITION ( 'international standard', 'config_control_design', 1994, #172 ) ;
#135 = EDGE_LOOP ( 'NONE', ( #148 ) ) ;
#136 = CARTESIAN_POINT ( 'NONE',  ( 2.228241503965246398E-14, 1.499999999999991340, 6.381937314617157853 ) ) ;
#137 = PRODUCT_DEFINITION ( 'UNKNOWN', '', #192, #190 ) ;
#138 = CALENDAR_DATE ( 2021, 1, 11 ) ;
#139 =( GEOMETRIC_REPRESENTATION_CONTEXT ( 3 ) GLOBAL_UNCERTAINTY_ASSIGNED_CONTEXT ( ( #86 ) ) GLOBAL_UNIT_ASSIGNED_CONTEXT ( ( #147, #81, #153 ) ) REPRESENTATION_CONTEXT ( 'NONE', 'WORKASPACE' ) );
#140 = ADVANCED_FACE ( 'NONE', ( #43 ), #46, .F. ) ;
#141 = EDGE_CURVE ( 'NONE', #14, #14, #160, .T. ) ;
#142 = CLOSED_SHELL ( 'NONE', ( #103, #19, #21 ) ) ;
#143 = FACE_OUTER_BOUND ( 'NONE', #184, .T. ) ;
#144 = DIRECTION ( 'NONE',  ( 0.0000000000000000000, 1.000000000000000000, 0.0000000000000000000 ) ) ;
#145 = CARTESIAN_POINT ( 'NONE',  ( 1.326762908760390423E-13, 8.998558695971030697E-33, 38.00000000000000000 ) ) ;
#146 = DATE_TIME_ROLE ( 'creation_date' ) ;
#147 =( LENGTH_UNIT ( ) NAMED_UNIT ( * ) SI_UNIT ( .MILLI., .METRE. ) );
#148 = ORIENTED_EDGE ( 'NONE', *, *, #141, .T. ) ;
#149 = AXIS2_PLACEMENT_3D ( 'NONE', #163, #44, #197 ) ;
#150 = CC_DESIGN_SECURITY_CLASSIFICATION ( #30, ( #192 ) ) ;
#151 = DATE_AND_TIME ( #165, #69 ) ;
#152 = CALENDAR_DATE ( 2021, 1, 11 ) ;
#153 =( NAMED_UNIT ( * ) SI_UNIT ( $, .STERADIAN. ) SOLID_ANGLE_UNIT ( ) );
#154 = LOCAL_TIME ( 10, 45, 32.00000000000000000, #65 ) ;
#155 = COORDINATED_UNIVERSAL_TIME_OFFSET ( 1, 0, .AHEAD. ) ;
#156 = CIRCLE ( 'NONE', #149, 0.7499999999999992228 ) ;
#157 = CC_DESIGN_APPROVAL ( #52, ( #30 ) ) ;
#158 = DIRECTION ( 'NONE',  ( -3.491481338843133355E-15, 1.224646799147353207E-16, -1.000000000000000000 ) ) ;
#159 = CARTESIAN_POINT ( 'NONE',  ( 1.047444401652939691E-14, -3.682553457016952190E-16, 2.999999999999999112 ) ) ;
#160 = CIRCLE ( 'NONE', #220, 1.199999999999993738 ) ;
#161 = FACE_OUTER_BOUND ( 'NONE', #109, .T. ) ;
#162 = DIRECTION ( 'NONE',  ( 3.491481338843133355E-15, -1.224646799147353207E-16, 1.000000000000000000 ) ) ;
#163 = CARTESIAN_POINT ( 'NONE',  ( 1.047444401652939691E-14, -3.682553457016952190E-16, 2.999999999999999112 ) ) ;
#164 = EDGE_LOOP ( 'NONE', ( #67 ) ) ;
#165 = CALENDAR_DATE ( 2021, 1, 11 ) ;
#166 = PERSON_AND_ORGANIZATION_ROLE ( 'design_owner' ) ;
#167 = CARTESIAN_POINT ( 'NONE',  ( 0.0000000000000000000, 0.0000000000000000000, 0.0000000000000000000 ) ) ;
#168 = TOROIDAL_SURFACE ( 'NONE', #62, 8.749999999999998224, 8.000000000000000000 ) ;
#169 = CALENDAR_DATE ( 2021, 1, 11 ) ;
#170 = AXIS2_PLACEMENT_3D ( 'NONE', #195, #59, #130 ) ;
#171 = LOCAL_TIME ( 10, 45, 32.00000000000000000, #90 ) ;
#172 = APPLICATION_CONTEXT ( 'configuration controlled 3d designs of mechanical parts and assemblies' ) ;
#173 = PLANE ( 'NONE',  #38 ) ;
#174 = DATE_TIME_ROLE ( 'classification_date' ) ;
#175 = DIRECTION ( 'NONE',  ( 3.491481338843133355E-15, -1.227517819005651059E-16, 1.000000000000000000 ) ) ;
#176 = AXIS2_PLACEMENT_3D ( 'NONE', #215, #3, #63 ) ;
#177 = AXIS2_PLACEMENT_3D ( 'NONE', #61, #42, #127 ) ;
#178 = PLANE ( 'NONE',  #54 ) ;
#179 = DIRECTION ( 'NONE',  ( -4.275831445896958607E-31, -1.000000000000000000, -1.224646799147353207E-16 ) ) ;
#180 = EDGE_LOOP ( 'NONE', ( #82 ) ) ;
#181 = FACE_OUTER_BOUND ( 'NONE', #27, .T. ) ;
#182 = ADVANCED_FACE ( 'NONE', ( #47, #110 ), #168, .F. ) ;
#183 = PERSON_AND_ORGANIZATION ( #2, #117 ) ;
#184 = EDGE_LOOP ( 'NONE', ( #199 ) ) ;
#185 = APPLICATION_PROTOCOL_DEFINITION ( 'international standard', 'config_control_design', 1994, #188 ) ;
#186 = ORIENTED_EDGE ( 'NONE', *, *, #4, .F. ) ;
#187 = VERTEX_POINT ( 'NONE', #222 ) ;
#188 = APPLICATION_CONTEXT ( 'configuration controlled 3d designs of mechanical parts and assemblies' ) ;
#189 = PERSON_AND_ORGANIZATION ( #2, #117 ) ;
#190 = DESIGN_CONTEXT ( 'detailed design', #188, 'design' ) ;
#191 = ADVANCED_BREP_SHAPE_REPRESENTATION ( '36240', ( #53, #129, #41 ), #139 ) ;
#192 = PRODUCT_DEFINITION_FORMATION_WITH_SPECIFIED_SOURCE ( 'ANY', '', #98, .NOT_KNOWN. ) ;
#193 = DIRECTION ( 'NONE',  ( 4.275831445896958607E-31, 1.000000000000000000, 1.224646799147353207E-16 ) ) ;
#194 = DIRECTION ( 'NONE',  ( -3.491481338843133355E-15, 1.224646799147353207E-16, -1.000000000000000000 ) ) ;
#195 = CARTESIAN_POINT ( 'NONE',  ( -3.214391668616739084E-31, -1.124808268304439581E-32, -9.206383642542380474E-17 ) ) ;
#196 = CIRCLE ( 'NONE', #206, 0.7499999999999992228 ) ;
#197 = DIRECTION ( 'NONE',  ( 0.0000000000000000000, -1.000000000000000000, 0.0000000000000000000 ) ) ;
#198 = DIRECTION ( 'NONE',  ( 0.0000000000000000000, 1.000000000000000000, 0.0000000000000000000 ) ) ;
#199 = ORIENTED_EDGE ( 'NONE', *, *, #87, .F. ) ;
#200 = CARTESIAN_POINT ( 'NONE',  ( 1.047444401652939691E-14, 0.0000000000000000000, 2.999999999999999112 ) ) ;
#201 = ORIENTED_EDGE ( 'NONE', *, *, #56, .T. ) ;
#202 = ORIENTED_EDGE ( 'NONE', *, *, #133, .T. ) ;
#203 = CC_DESIGN_DATE_AND_TIME_ASSIGNMENT ( #74, #174, ( #30 ) ) ;
#204 = PERSON_AND_ORGANIZATION ( #2, #117 ) ;
#205 = DATE_AND_TIME ( #138, #128 ) ;
#206 = AXIS2_PLACEMENT_3D ( 'NONE', #159, #175, #9 ) ;
#207 = APPROVAL_PERSON_ORGANIZATION ( #13, #70, #99 ) ;
#208 = CARTESIAN_POINT ( 'NONE',  ( -1.282754905350004587E-30, 4.499298539707956128E-32, -3.673956068672651857E-16 ) ) ;
#209 = CC_DESIGN_PERSON_AND_ORGANIZATION_ASSIGNMENT ( #183, #166, ( #98 ) ) ;
#210 = CARTESIAN_POINT ( 'NONE',  ( 2.228241503965246398E-14, -4.151388316452683613E-16, 6.381937314617157853 ) ) ;
#211 = DIRECTION ( 'NONE',  ( 4.275831445896958607E-31, 1.000000000000000000, 1.224646799147353207E-16 ) ) ;
#212 = DIRECTION ( 'NONE',  ( -4.275831445896958607E-31, -1.000000000000000000, -1.224646799147353207E-16 ) ) ;
#213 = CC_DESIGN_PERSON_AND_ORGANIZATION_ASSIGNMENT ( #189, #216, ( #192 ) ) ;
#214 = AXIS2_PLACEMENT_3D ( 'NONE', #208, #105, #179 ) ;
#215 = CARTESIAN_POINT ( 'NONE',  ( 1.047444401652940007E-14, 1.124819836996384858E-32, 3.000000000000000000 ) ) ;
#216 = PERSON_AND_ORGANIZATION_ROLE ( 'creator' ) ;
#217 = SHAPE_DEFINITION_REPRESENTATION ( #101, #191 ) ;
#218 = CARTESIAN_POINT ( 'NONE',  ( 1.047444401652939691E-14, -0.7499999999999995559, 2.999999999999999112 ) ) ;
#219 = VERTEX_POINT ( 'NONE', #66 ) ;
#220 = AXIS2_PLACEMENT_3D ( 'NONE', #23, #106, #198 ) ;
#221 = EDGE_LOOP ( 'NONE', ( #201 ) ) ;
#222 = CARTESIAN_POINT ( 'NONE',  ( 1.316288464743861212E-13, 1.499999999999989120, 37.69999999999999574 ) ) ;
#223 = COORDINATED_UNIVERSAL_TIME_OFFSET ( 1, 0, .AHEAD. ) ;
ENDSEC;
END-ISO-10303-21;
