ISO-10303-21;
HEADER;
FILE_DESCRIPTION (( 'STEP AP203' ),
    '1' );
FILE_NAME ('36239.step',
    '2021-11-01T09:45:32',
    ( '' ),
    ( '' ),
    'SwSTEP 2.0',
    'SolidWorks 2019',
    '' );
FILE_SCHEMA (( 'CONFIG_CONTROL_DESIGN' ));
ENDSEC;

DATA;
#1 = ORIENTED_EDGE ( 'NONE', *, *, #89, .T. ) ;
#2 = ORIENTED_EDGE ( 'NONE', *, *, #78, .T. ) ;
#3 = CARTESIAN_POINT ( 'NONE',  ( 9.776147748760773395E-15, 1.124819836996384858E-32, 2.799999999999999822 ) ) ;
#4 = CC_DESIGN_DATE_AND_TIME_ASSIGNMENT ( #140, #11, ( #55 ) ) ;
#5 = PERSON ( 'UNSPECIFIED', 'UNSPECIFIED', 'UNSPECIFIED', ('UNSPECIFIED'), ('UNSPECIFIED'), ('UNSPECIFIED') ) ;
#6 = COORDINATED_UNIVERSAL_TIME_OFFSET ( 1, 0, .AHEAD. ) ;
#7 = FACE_OUTER_BOUND ( 'NONE', #116, .T. ) ;
#8 = FACE_OUTER_BOUND ( 'NONE', #241, .T. ) ;
#9 = CIRCLE ( 'NONE', #35, 0.6999999999999999556 ) ;
#10 = CC_DESIGN_APPROVAL ( #166, ( #117 ) ) ;
#11 = DATE_TIME_ROLE ( 'classification_date' ) ;
#12 = DIRECTION ( 'NONE',  ( 3.491481338843133355E-15, -1.219242935835426903E-16, 1.000000000000000000 ) ) ;
#13 = DIRECTION ( 'NONE',  ( 3.491481338843133355E-15, -1.224646799147353207E-16, 1.000000000000000000 ) ) ;
#14 = FACE_OUTER_BOUND ( 'NONE', #224, .T. ) ;
#15 =( NAMED_UNIT ( * ) PLANE_ANGLE_UNIT ( ) SI_UNIT ( $, .RADIAN. ) );
#16 = EDGE_CURVE ( 'NONE', #164, #164, #208, .T. ) ;
#17 = DIRECTION ( 'NONE',  ( 0.0000000000000000000, -1.000000000000000000, 0.0000000000000000000 ) ) ;
#18 = DIRECTION ( 'NONE',  ( -4.275831445896958607E-31, -1.000000000000000000, -1.224646799147353207E-16 ) ) ;
#19 = COORDINATED_UNIVERSAL_TIME_OFFSET ( 1, 0, .AHEAD. ) ;
#20 = CARTESIAN_POINT ( 'NONE',  ( 1.316288464743861212E-13, -4.616918432785521081E-15, 37.69999999999999574 ) ) ;
#21 = CARTESIAN_POINT ( 'NONE',  ( 9.776147748760771817E-15, -4.336808689942017736E-16, 2.799999999999999378 ) ) ;
#22 = AXIS2_PLACEMENT_3D ( 'NONE', #237, #31, #147 ) ;
#23 = COORDINATED_UNIVERSAL_TIME_OFFSET ( 1, 0, .AHEAD. ) ;
#24 = ADVANCED_FACE ( 'NONE', ( #98 ), #83, .F. ) ;
#25 = DIRECTION ( 'NONE',  ( 3.491481338843133355E-15, -1.224646799147353207E-16, 1.000000000000000000 ) ) ;
#26 = DIRECTION ( 'NONE',  ( 1.000000000000000000, 0.0000000000000000000, 0.0000000000000000000 ) ) ;
#27 = APPROVAL_ROLE ( '' ) ;
#28 = EDGE_CURVE ( 'NONE', #91, #91, #118, .T. ) ;
#29 = PERSON_AND_ORGANIZATION ( #5, #165 ) ;
#30 = APPLICATION_CONTEXT ( 'configuration controlled 3d designs of mechanical parts and assemblies' ) ;
#31 = DIRECTION ( 'NONE',  ( -3.491481338843133355E-15, 1.224646799147353207E-16, -1.000000000000000000 ) ) ;
#32 = CARTESIAN_POINT ( 'NONE',  ( 9.776147748760771817E-15, -0.7000000000000002887, 2.799999999999999378 ) ) ;
#33 = UNCERTAINTY_MEASURE_WITH_UNIT (LENGTH_MEASURE( 1.000000000000000082E-05 ), #73, 'distance_accuracy_value', 'NONE');
#34 = EDGE_LOOP ( 'NONE', ( #37 ) ) ;
#35 = AXIS2_PLACEMENT_3D ( 'NONE', #157, #141, #234 ) ;
#36 = ORIENTED_EDGE ( 'NONE', *, *, #89, .F. ) ;
#37 = ORIENTED_EDGE ( 'NONE', *, *, #16, .F. ) ;
#38 = DIRECTION ( 'NONE',  ( 0.0000000000000000000, -1.000000000000000000, 0.0000000000000000000 ) ) ;
#39 = PERSON_AND_ORGANIZATION ( #5, #165 ) ;
#40 = DIRECTION ( 'NONE',  ( 4.275831445896958607E-31, 1.000000000000000000, 1.224646799147353207E-16 ) ) ;
#41 = APPLICATION_CONTEXT ( 'configuration controlled 3d designs of mechanical parts and assemblies' ) ;
#42 = FACE_OUTER_BOUND ( 'NONE', #96, .T. ) ;
#43 = APPROVAL_STATUS ( 'not_yet_approved' ) ;
#44 = CARTESIAN_POINT ( 'NONE',  ( 3.415016657627234501E-14, -1.192541082562946614E-15, 9.780996448798907394 ) ) ;
#45 = CC_DESIGN_SECURITY_CLASSIFICATION ( #55, ( #206 ) ) ;
#46 = FACE_OUTER_BOUND ( 'NONE', #167, .T. ) ;
#47 = ADVANCED_FACE ( 'NONE', ( #211, #7 ), #181, .T. ) ;
#48 =( NAMED_UNIT ( * ) SI_UNIT ( $, .STERADIAN. ) SOLID_ANGLE_UNIT ( ) );
#49 = VERTEX_POINT ( 'NONE', #111 ) ;
#50 = PRODUCT ( '36239', '36239', '', ( #128 ) ) ;
#51 = CIRCLE ( 'NONE', #218, 0.7681483474218605556 ) ;
#52 = LOCAL_TIME ( 10, 45, 32.00000000000000000, #6 ) ;
#53 = MANIFOLD_SOLID_BREP ( 'Corps-Déplacer/Copier1[2]', #54 ) ;
#54 = CLOSED_SHELL ( 'NONE', ( #100, #84, #201 ) ) ;
#55 = SECURITY_CLASSIFICATION ( '', '', #193 ) ;
#56 = MANIFOLD_SOLID_BREP ( 'Corps-Déplacer/Copier1[1]', #88 ) ;
#57 = ORIENTED_EDGE ( 'NONE', *, *, #16, .T. ) ;
#58 = ORIENTED_EDGE ( 'NONE', *, *, #120, .F. ) ;
#59 = EDGE_LOOP ( 'NONE', ( #2 ) ) ;
#60 = AXIS2_PLACEMENT_3D ( 'NONE', #143, #81, #65 ) ;
#61 = EDGE_LOOP ( 'NONE', ( #1 ) ) ;
#62 = DIRECTION ( 'NONE',  ( -4.256963957985708889E-31, -1.000000000000000000, -1.219242935835427149E-16 ) ) ;
#63 = APPROVAL_DATE_TIME ( #215, #186 ) ;
#64 = AXIS2_PLACEMENT_3D ( 'NONE', #194, #99, #38 ) ;
#65 = DIRECTION ( 'NONE',  ( -4.256963957985710640E-31, -1.000000000000000000, -1.219242935835427642E-16 ) ) ;
#66 = PERSON_AND_ORGANIZATION_ROLE ( 'classification_officer' ) ;
#67 = CARTESIAN_POINT ( 'NONE',  ( 9.776147748760773395E-15, 1.124819836996384858E-32, 2.799999999999999822 ) ) ;
#68 = DIRECTION ( 'NONE',  ( -3.491481338843133355E-15, 1.224646799147353207E-16, -1.000000000000000000 ) ) ;
#69 = CARTESIAN_POINT ( 'NONE',  ( 1.326762908760390423E-13, -4.653657836759941941E-15, 38.00000000000000000 ) ) ;
#70 = APPROVAL_PERSON_ORGANIZATION ( #39, #76, #27 ) ;
#71 = PERSON_AND_ORGANIZATION_ROLE ( 'creator' ) ;
#72 = APPLICATION_PROTOCOL_DEFINITION ( 'international standard', 'config_control_design', 1994, #30 ) ;
#73 =( LENGTH_UNIT ( ) NAMED_UNIT ( * ) SI_UNIT ( .MILLI., .METRE. ) );
#74 = AXIS2_PLACEMENT_3D ( 'NONE', #21, #12, #86 ) ;
#75 = FACE_BOUND ( 'NONE', #61, .T. ) ;
#76 = APPROVAL ( #43, 'UNSPECIFIED' ) ;
#77 = EDGE_LOOP ( 'NONE', ( #113 ) ) ;
#78 = EDGE_CURVE ( 'NONE', #87, #87, #108, .T. ) ;
#79 = ORIENTED_EDGE ( 'NONE', *, *, #203, .F. ) ;
#80 = CONICAL_SURFACE ( 'NONE', #22, 1.199999999999993738, 0.7853981633974453924 ) ;
#81 = DIRECTION ( 'NONE',  ( 3.491481338843133355E-15, -1.219242935835426903E-16, 1.000000000000000000 ) ) ;
#82 = CALENDAR_DATE ( 2021, 1, 11 ) ;
#83 = PLANE ( 'NONE',  #222 ) ;
#84 = ADVANCED_FACE ( 'NONE', ( #46, #151 ), #126, .T. ) ;
#85 = DIRECTION ( 'NONE',  ( -4.275831445896958607E-31, -1.000000000000000000, -1.224646799147353207E-16 ) ) ;
#86 = DIRECTION ( 'NONE',  ( -4.313464584375622907E-31, -1.000000000000000000, -1.219242935835426903E-16 ) ) ;
#87 = VERTEX_POINT ( 'NONE', #127 ) ;
#88 = CLOSED_SHELL ( 'NONE', ( #162, #242, #230, #47, #221, #24 ) ) ;
#89 = EDGE_CURVE ( 'NONE', #197, #197, #134, .T. ) ;
#90 = COORDINATED_UNIVERSAL_TIME_OFFSET ( 1, 0, .AHEAD. ) ;
#91 = VERTEX_POINT ( 'NONE', #202 ) ;
#92 = CIRCLE ( 'NONE', #64, 0.6999999999999999556 ) ;
#93 = CC_DESIGN_APPROVAL ( #76, ( #206 ) ) ;
#94 = ADVANCED_BREP_SHAPE_REPRESENTATION ( '36239', ( #56, #53, #97 ), #239 ) ;
#95 = CC_DESIGN_PERSON_AND_ORGANIZATION_ASSIGNMENT ( #195, #233, ( #206 ) ) ;
#96 = EDGE_LOOP ( 'NONE', ( #187 ) ) ;
#97 = AXIS2_PLACEMENT_3D ( 'NONE', #217, #146, #26 ) ;
#98 = FACE_OUTER_BOUND ( 'NONE', #135, .T. ) ;
#99 = DIRECTION ( 'NONE',  ( 3.491481338843133355E-15, -1.219242935835426903E-16, 1.000000000000000000 ) ) ;
#100 = ADVANCED_FACE ( 'NONE', ( #137 ), #106, .T. ) ;
#101 = APPROVAL_ROLE ( '' ) ;
#102 = DIRECTION ( 'NONE',  ( -4.275831445896958607E-31, -1.000000000000000000, -1.224646799147353207E-16 ) ) ;
#103 = PERSON_AND_ORGANIZATION ( #5, #165 ) ;
#104 = LOCAL_TIME ( 10, 45, 32.00000000000000000, #23 ) ;
#105 = DIRECTION ( 'NONE',  ( 3.491481338843133355E-15, -1.219242935835426903E-16, 1.000000000000000000 ) ) ;
#106 = PLANE ( 'NONE',  #192 ) ;
#107 = PERSON_AND_ORGANIZATION_ROLE ( 'creator' ) ;
#108 = CIRCLE ( 'NONE', #243, 1.499999999999993783 ) ;
#109 = APPLICATION_PROTOCOL_DEFINITION ( 'international standard', 'config_control_design', 1994, #41 ) ;
#110 = PRODUCT_RELATED_PRODUCT_CATEGORY ( 'detail', '', ( #50 ) ) ;
#111 = CARTESIAN_POINT ( 'NONE',  ( 9.776147748760771817E-15, -0.7000000000000002887, 2.799999999999999378 ) ) ;
#112 = CC_DESIGN_APPROVAL ( #186, ( #55 ) ) ;
#113 = ORIENTED_EDGE ( 'NONE', *, *, #120, .T. ) ;
#114 = ORIENTED_EDGE ( 'NONE', *, *, #28, .F. ) ;
#115 = AXIS2_PLACEMENT_3D ( 'NONE', #176, #13, #85 ) ;
#116 = EDGE_LOOP ( 'NONE', ( #57 ) ) ;
#117 = PRODUCT_DEFINITION ( 'UNKNOWN', '', #206, #185 ) ;
#118 = CIRCLE ( 'NONE', #60, 0.7000000000000000666 ) ;
#119 = CYLINDRICAL_SURFACE ( 'NONE', #155, 1.499999999999991784 ) ;
#120 = EDGE_CURVE ( 'NONE', #49, #49, #92, .T. ) ;
#121 = CARTESIAN_POINT ( 'NONE',  ( 1.158347148098602978E-14, -4.045006805141017776E-16, 3.317638090205028867 ) ) ;
#122 = FACE_OUTER_BOUND ( 'NONE', #34, .T. ) ;
#123 = COORDINATED_UNIVERSAL_TIME_OFFSET ( 1, 0, .AHEAD. ) ;
#124 = DIRECTION ( 'NONE',  ( 3.491481338843133355E-15, -1.219242935835426903E-16, 1.000000000000000000 ) ) ;
#125 = CC_DESIGN_DATE_AND_TIME_ASSIGNMENT ( #142, #196, ( #117 ) ) ;
#126 = CYLINDRICAL_SURFACE ( 'NONE', #138, 0.7000000000000000666 ) ;
#127 = CARTESIAN_POINT ( 'NONE',  ( 1.316288464743861212E-13, 1.499999999999989120, 37.69999999999999574 ) ) ;
#128 = MECHANICAL_CONTEXT ( 'NONE', #30, 'mechanical' ) ;
#129 = CC_DESIGN_PERSON_AND_ORGANIZATION_ASSIGNMENT ( #29, #130, ( #50 ) ) ;
#130 = PERSON_AND_ORGANIZATION_ROLE ( 'design_owner' ) ;
#131 = DATE_AND_TIME ( #200, #219 ) ;
#132 = EDGE_LOOP ( 'NONE', ( #150 ) ) ;
#133 = EDGE_LOOP ( 'NONE', ( #227 ) ) ;
#134 = CIRCLE ( 'NONE', #168, 1.199999999999993738 ) ;
#135 = EDGE_LOOP ( 'NONE', ( #58 ) ) ;
#136 = CC_DESIGN_PERSON_AND_ORGANIZATION_ASSIGNMENT ( #103, #71, ( #206 ) ) ;
#137 = FACE_OUTER_BOUND ( 'NONE', #133, .T. ) ;
#138 = AXIS2_PLACEMENT_3D ( 'NONE', #228, #105, #62 ) ;
#139 = DIRECTION ( 'NONE',  ( -3.491481338843133355E-15, 1.224646799147353207E-16, -1.000000000000000000 ) ) ;
#140 = DATE_AND_TIME ( #144, #104 ) ;
#141 = DIRECTION ( 'NONE',  ( 3.491481338843133355E-15, -1.219242935835426903E-16, 1.000000000000000000 ) ) ;
#142 = DATE_AND_TIME ( #82, #199 ) ;
#143 = CARTESIAN_POINT ( 'NONE',  ( -3.504872004643547867E-30, 1.223919024033766897E-31, -1.003835239115111872E-15 ) ) ;
#144 = CALENDAR_DATE ( 2021, 1, 11 ) ;
#145 = CARTESIAN_POINT ( 'NONE',  ( 1.326762908760390423E-13, 8.998558695971030697E-33, 38.00000000000000000 ) ) ;
#146 = DIRECTION ( 'NONE',  ( 0.0000000000000000000, 0.0000000000000000000, 1.000000000000000000 ) ) ;
#147 = DIRECTION ( 'NONE',  ( 0.0000000000000000000, 1.000000000000000000, 0.0000000000000000000 ) ) ;
#148 = PRODUCT_DEFINITION_SHAPE ( 'NONE', 'NONE',  #117 ) ;
#149 = APPROVAL_STATUS ( 'not_yet_approved' ) ;
#150 = ORIENTED_EDGE ( 'NONE', *, *, #180, .T. ) ;
#151 = FACE_OUTER_BOUND ( 'NONE', #169, .T. ) ;
#152 = CC_DESIGN_PERSON_AND_ORGANIZATION_ASSIGNMENT ( #160, #66, ( #55 ) ) ;
#153 = SHAPE_DEFINITION_REPRESENTATION ( #148, #94 ) ;
#154 = DIRECTION ( 'NONE',  ( 3.491481338843133355E-15, -1.224646799147353207E-16, 1.000000000000000000 ) ) ;
#155 = AXIS2_PLACEMENT_3D ( 'NONE', #188, #139, #40 ) ;
#156 = PERSON_AND_ORGANIZATION ( #5, #165 ) ;
#157 = CARTESIAN_POINT ( 'NONE',  ( 9.776147748760771817E-15, -3.413880220339194539E-16, 2.799999999999999378 ) ) ;
#158 = DIRECTION ( 'NONE',  ( -3.491481338843133355E-15, 1.224646799147353207E-16, -1.000000000000000000 ) ) ;
#159 = FACE_OUTER_BOUND ( 'NONE', #77, .T. ) ;
#160 = PERSON_AND_ORGANIZATION ( #5, #165 ) ;
#161 = CARTESIAN_POINT ( 'NONE',  ( 1.326762908760390423E-13, 1.199999999999989297, 38.00000000000000000 ) ) ;
#162 = ADVANCED_FACE ( 'NONE', ( #174, #122 ), #119, .T. ) ;
#163 = AXIS2_PLACEMENT_3D ( 'NONE', #172, #170, #17 ) ;
#164 = VERTEX_POINT ( 'NONE', #216 ) ;
#165 = ORGANIZATION ( 'UNSPECIFIED', 'UNSPECIFIED', '' ) ;
#166 = APPROVAL ( #149, 'UNSPECIFIED' ) ;
#167 = EDGE_LOOP ( 'NONE', ( #223 ) ) ;
#168 = AXIS2_PLACEMENT_3D ( 'NONE', #69, #231, #210 ) ;
#169 = EDGE_LOOP ( 'NONE', ( #79 ) ) ;
#170 = DIRECTION ( 'NONE',  ( -3.491481338843133355E-15, 1.219242935835426903E-16, -1.000000000000000000 ) ) ;
#171 = DATE_AND_TIME ( #190, #225 ) ;
#172 = CARTESIAN_POINT ( 'NONE',  ( 2.111978082603081722E-14, -7.375134242322090784E-16, 6.048945641229932058 ) ) ;
#173 = PERSON_AND_ORGANIZATION ( #5, #165 ) ;
#174 = FACE_OUTER_BOUND ( 'NONE', #59, .T. ) ;
#175 = TOROIDAL_SURFACE ( 'NONE', #74, 2.700000000000000622, 2.000000000000000000 ) ;
#176 = CARTESIAN_POINT ( 'NONE',  ( -1.282754905350004587E-30, 4.499298539707956128E-32, -3.673956068672651857E-16 ) ) ;
#177 = APPROVAL_DATE_TIME ( #171, #76 ) ;
#178 = DIRECTION ( 'NONE',  ( 3.491481338843133355E-15, -1.219242935835426903E-16, 1.000000000000000000 ) ) ;
#179 = APPROVAL_DATE_TIME ( #131, #166 ) ;
#180 = EDGE_CURVE ( 'NONE', #182, #182, #51, .T. ) ;
#181 = CONICAL_SURFACE ( 'NONE', #238, 2.499999999999992895, 0.2617993877991430240 ) ;
#182 = VERTEX_POINT ( 'NONE', #184 ) ;
#183 = PERSON_AND_ORGANIZATION ( #5, #165 ) ;
#184 = CARTESIAN_POINT ( 'NONE',  ( 1.158347148098602978E-14, -0.7681483474218609997, 3.317638090205028867 ) ) ;
#185 = DESIGN_CONTEXT ( 'detailed design', #41, 'design' ) ;
#186 = APPROVAL ( #229, 'UNSPECIFIED' ) ;
#187 = ORIENTED_EDGE ( 'NONE', *, *, #180, .F. ) ;
#188 = CARTESIAN_POINT ( 'NONE',  ( 0.0000000000000000000, 0.0000000000000000000, 0.0000000000000000000 ) ) ;
#189 = DIRECTION ( 'NONE',  ( 0.0000000000000000000, -1.000000000000000000, 0.0000000000000000000 ) ) ;
#190 = CALENDAR_DATE ( 2021, 1, 11 ) ;
#191 = FACE_OUTER_BOUND ( 'NONE', #204, .T. ) ;
#192 = AXIS2_PLACEMENT_3D ( 'NONE', #67, #25, #102 ) ;
#193 = SECURITY_CLASSIFICATION_LEVEL ( 'unclassified' ) ;
#194 = CARTESIAN_POINT ( 'NONE',  ( 9.776147748760771817E-15, -3.413880220339194539E-16, 2.799999999999999378 ) ) ;
#195 = PERSON_AND_ORGANIZATION ( #5, #165 ) ;
#196 = DATE_TIME_ROLE ( 'creation_date' ) ;
#197 = VERTEX_POINT ( 'NONE', #161 ) ;
#198 = CC_DESIGN_PERSON_AND_ORGANIZATION_ASSIGNMENT ( #156, #107, ( #117 ) ) ;
#199 = LOCAL_TIME ( 10, 45, 32.00000000000000000, #19 ) ;
#200 = CALENDAR_DATE ( 2021, 1, 11 ) ;
#201 = ADVANCED_FACE ( 'NONE', ( #8 ), #235, .F. ) ;
#202 = CARTESIAN_POINT ( 'NONE',  ( -3.802859481702547236E-30, -0.7000000000000000666, -1.089182244623591736E-15 ) ) ;
#203 = EDGE_CURVE ( 'NONE', #240, #240, #9, .T. ) ;
#204 = EDGE_LOOP ( 'NONE', ( #36 ) ) ;
#205 = AXIS2_PLACEMENT_3D ( 'NONE', #145, #158, #214 ) ;
#206 = PRODUCT_DEFINITION_FORMATION_WITH_SPECIFIED_SOURCE ( 'ANY', '', #50, .NOT_KNOWN. ) ;
#207 = DIRECTION ( 'NONE',  ( 0.0000000000000000000, -1.000000000000000000, 0.0000000000000000000 ) ) ;
#208 = CIRCLE ( 'NONE', #163, 1.499999999999991784 ) ;
#209 = DIRECTION ( 'NONE',  ( 0.0000000000000000000, 1.000000000000000000, 0.0000000000000000000 ) ) ;
#210 = DIRECTION ( 'NONE',  ( 0.0000000000000000000, 1.000000000000000000, 0.0000000000000000000 ) ) ;
#211 = FACE_BOUND ( 'NONE', #132, .T. ) ;
#212 = APPROVAL_PERSON_ORGANIZATION ( #173, #186, #101 ) ;
#213 = CALENDAR_DATE ( 2021, 1, 11 ) ;
#214 = DIRECTION ( 'NONE',  ( 4.275831445896958607E-31, 1.000000000000000000, 1.224646799147353207E-16 ) ) ;
#215 = DATE_AND_TIME ( #213, #52 ) ;
#216 = CARTESIAN_POINT ( 'NONE',  ( 2.111978082603081722E-14, -1.499999999999992450, 6.048945641229932058 ) ) ;
#217 = CARTESIAN_POINT ( 'NONE',  ( 0.0000000000000000000, 0.0000000000000000000, 0.0000000000000000000 ) ) ;
#218 = AXIS2_PLACEMENT_3D ( 'NONE', #121, #178, #189 ) ;
#219 = LOCAL_TIME ( 10, 45, 32.00000000000000000, #90 ) ;
#220 = APPROVAL_ROLE ( '' ) ;
#221 = ADVANCED_FACE ( 'NONE', ( #159, #42 ), #175, .F. ) ;
#222 = AXIS2_PLACEMENT_3D ( 'NONE', #3, #154, #18 ) ;
#223 = ORIENTED_EDGE ( 'NONE', *, *, #28, .T. ) ;
#224 = EDGE_LOOP ( 'NONE', ( #226 ) ) ;
#225 = LOCAL_TIME ( 10, 45, 32.00000000000000000, #123 ) ;
#226 = ORIENTED_EDGE ( 'NONE', *, *, #78, .F. ) ;
#227 = ORIENTED_EDGE ( 'NONE', *, *, #203, .T. ) ;
#228 = CARTESIAN_POINT ( 'NONE',  ( 0.0000000000000000000, 0.0000000000000000000, 0.0000000000000000000 ) ) ;
#229 = APPROVAL_STATUS ( 'not_yet_approved' ) ;
#230 = ADVANCED_FACE ( 'NONE', ( #191 ), #236, .F. ) ;
#231 = DIRECTION ( 'NONE',  ( -3.491481338843133355E-15, 1.224646799147353207E-16, -1.000000000000000000 ) ) ;
#232 = APPROVAL_PERSON_ORGANIZATION ( #183, #166, #220 ) ;
#233 = PERSON_AND_ORGANIZATION_ROLE ( 'design_supplier' ) ;
#234 = DIRECTION ( 'NONE',  ( 0.0000000000000000000, -1.000000000000000000, 0.0000000000000000000 ) ) ;
#235 = PLANE ( 'NONE',  #115 ) ;
#236 = PLANE ( 'NONE',  #205 ) ;
#237 = CARTESIAN_POINT ( 'NONE',  ( 1.326762908760390423E-13, -4.653657836759941941E-15, 38.00000000000000000 ) ) ;
#238 = AXIS2_PLACEMENT_3D ( 'NONE', #44, #124, #207 ) ;
#239 =( GEOMETRIC_REPRESENTATION_CONTEXT ( 3 ) GLOBAL_UNCERTAINTY_ASSIGNED_CONTEXT ( ( #33 ) ) GLOBAL_UNIT_ASSIGNED_CONTEXT ( ( #73, #15, #48 ) ) REPRESENTATION_CONTEXT ( 'NONE', 'WORKASPACE' ) );
#240 = VERTEX_POINT ( 'NONE', #32 ) ;
#241 = EDGE_LOOP ( 'NONE', ( #114 ) ) ;
#242 = ADVANCED_FACE ( 'NONE', ( #14, #75 ), #80, .T. ) ;
#243 = AXIS2_PLACEMENT_3D ( 'NONE', #20, #68, #209 ) ;
ENDSEC;
END-ISO-10303-21;
