ISO-10303-21;
HEADER;
FILE_DESCRIPTION (( 'STEP AP203' ),
    '1' );
FILE_NAME ('36237.step',
    '2021-11-01T09:45:31',
    ( '' ),
    ( '' ),
    'SwSTEP 2.0',
    'SolidWorks 2019',
    '' );
FILE_SCHEMA (( 'CONFIG_CONTROL_DESIGN' ));
ENDSEC;

DATA;
#1 = DIRECTION ( 'NONE',  ( -3.491481338843133355E-15, 1.224646799147353207E-16, -1.000000000000000000 ) ) ;
#2 = CIRCLE ( 'NONE', #68, 1.199999999999993738 ) ;
#3 = DIRECTION ( 'NONE',  ( -3.491481338843133355E-15, 1.224646799147353207E-16, -1.000000000000000000 ) ) ;
#4 = DIRECTION ( 'NONE',  ( -4.275831445896958607E-31, -1.000000000000000000, -1.224646799147353207E-16 ) ) ;
#5 = CARTESIAN_POINT ( 'NONE',  ( 8.379555213223518475E-15, 1.124819836996384995E-32, 2.399999999999999911 ) ) ;
#6 = CC_DESIGN_APPROVAL ( #81, ( #163 ) ) ;
#7 = DIRECTION ( 'NONE',  ( 4.275831445896958607E-31, 1.000000000000000000, 1.224646799147353207E-16 ) ) ;
#8 = EDGE_CURVE ( 'NONE', #109, #109, #170, .T. ) ;
#9 = VERTEX_POINT ( 'NONE', #67 ) ;
#10 = UNCERTAINTY_MEASURE_WITH_UNIT (LENGTH_MEASURE( 1.000000000000000082E-05 ), #12, 'distance_accuracy_value', 'NONE');
#11 = ADVANCED_FACE ( 'NONE', ( #137, #209 ), #206, .T. ) ;
#12 =( LENGTH_UNIT ( ) NAMED_UNIT ( * ) SI_UNIT ( .MILLI., .METRE. ) );
#13 = ORIENTED_EDGE ( 'NONE', *, *, #8, .F. ) ;
#14 = CALENDAR_DATE ( 2021, 1, 11 ) ;
#15 = CARTESIAN_POINT ( 'NONE',  ( 8.379555213223516897E-15, -2.926183046005023679E-16, 2.399999999999999467 ) ) ;
#16 = COORDINATED_UNIVERSAL_TIME_OFFSET ( 1, 0, .AHEAD. ) ;
#17 = EDGE_LOOP ( 'NONE', ( #51 ) ) ;
#18 = CALENDAR_DATE ( 2021, 1, 11 ) ;
#19 = CARTESIAN_POINT ( 'NONE',  ( -1.282754905350004587E-30, 4.499298539707956128E-32, -3.673956068672651857E-16 ) ) ;
#20 = DIRECTION ( 'NONE',  ( -3.491481338843133355E-15, 1.224646799147353207E-16, -1.000000000000000000 ) ) ;
#21 = DIRECTION ( 'NONE',  ( -4.256963957985708889E-31, -1.000000000000000000, -1.219242935835426656E-16 ) ) ;
#22 = CARTESIAN_POINT ( 'NONE',  ( 2.102622686551772296E-14, -7.342464726318658840E-16, 6.022150721986831101 ) ) ;
#23 = FACE_OUTER_BOUND ( 'NONE', #52, .T. ) ;
#24 = LOCAL_TIME ( 10, 45, 31.00000000000000000, #228 ) ;
#25 = COORDINATED_UNIVERSAL_TIME_OFFSET ( 1, 0, .AHEAD. ) ;
#26 = PERSON_AND_ORGANIZATION ( #47, #45 ) ;
#27 = VERTEX_POINT ( 'NONE', #105 ) ;
#28 = ORIENTED_EDGE ( 'NONE', *, *, #155, .F. ) ;
#29 = APPLICATION_PROTOCOL_DEFINITION ( 'international standard', 'config_control_design', 1994, #186 ) ;
#30 = AXIS2_PLACEMENT_3D ( 'NONE', #85, #64, #193 ) ;
#31 = ORIENTED_EDGE ( 'NONE', *, *, #213, .T. ) ;
#32 = PERSON_AND_ORGANIZATION ( #47, #45 ) ;
#33 = ADVANCED_FACE ( 'NONE', ( #75 ), #58, .T. ) ;
#34 = ORIENTED_EDGE ( 'NONE', *, *, #8, .T. ) ;
#35 = CIRCLE ( 'NONE', #30, 0.6000000000000001998 ) ;
#36 = DIRECTION ( 'NONE',  ( -4.275831445896958607E-31, -1.000000000000000000, -1.224646799147353207E-16 ) ) ;
#37 = SECURITY_CLASSIFICATION_LEVEL ( 'unclassified' ) ;
#38 = CARTESIAN_POINT ( 'NONE',  ( -3.462302365063690314E-30, 1.209053490667920663E-31, -9.916428097567574654E-16 ) ) ;
#39 = PERSON_AND_ORGANIZATION_ROLE ( 'design_supplier' ) ;
#40 = DIRECTION ( 'NONE',  ( 3.491481338843133355E-15, -1.224646799147353207E-16, 1.000000000000000000 ) ) ;
#41 = ADVANCED_BREP_SHAPE_REPRESENTATION ( '36237', ( #130, #126, #198 ), #207 ) ;
#42 = PLANE ( 'NONE',  #107 ) ;
#43 = CARTESIAN_POINT ( 'NONE',  ( 1.316288464743861212E-13, -4.616918432785521081E-15, 37.69999999999999574 ) ) ;
#44 = APPROVAL_ROLE ( '' ) ;
#45 = ORGANIZATION ( 'UNSPECIFIED', 'UNSPECIFIED', '' ) ;
#46 = EDGE_CURVE ( 'NONE', #27, #27, #123, .T. ) ;
#47 = PERSON ( 'UNSPECIFIED', 'UNSPECIFIED', 'UNSPECIFIED', ('UNSPECIFIED'), ('UNSPECIFIED'), ('UNSPECIFIED') ) ;
#48 = PRODUCT ( '36237', '36237', '', ( #194 ) ) ;
#49 = APPROVAL_PERSON_ORGANIZATION ( #239, #196, #70 ) ;
#50 = DIRECTION ( 'NONE',  ( 0.0000000000000000000, 1.000000000000000000, 0.0000000000000000000 ) ) ;
#51 = ORIENTED_EDGE ( 'NONE', *, *, #155, .T. ) ;
#52 = EDGE_LOOP ( 'NONE', ( #197 ) ) ;
#53 = PRODUCT_RELATED_PRODUCT_CATEGORY ( 'detail', '', ( #48 ) ) ;
#54 = AXIS2_PLACEMENT_3D ( 'NONE', #140, #40, #4 ) ;
#55 = PLANE ( 'NONE',  #54 ) ;
#56 = DIRECTION ( 'NONE',  ( 4.275831445896958607E-31, 1.000000000000000000, 1.224646799147353207E-16 ) ) ;
#57 = CARTESIAN_POINT ( 'NONE',  ( 8.379555213223516897E-15, -4.336808689942017736E-16, 2.399999999999999467 ) ) ;
#58 = PLANE ( 'NONE',  #128 ) ;
#59 = CONICAL_SURFACE ( 'NONE', #84, 2.499999999999992895, 0.2617993877991429130 ) ;
#60 = CARTESIAN_POINT ( 'NONE',  ( 1.018687894544877643E-14, -3.557309630806847409E-16, 2.917638090205028512 ) ) ;
#61 = DATE_TIME_ROLE ( 'creation_date' ) ;
#62 = CIRCLE ( 'NONE', #240, 0.6681483474218598007 ) ;
#63 = EDGE_CURVE ( 'NONE', #9, #9, #62, .T. ) ;
#64 = DIRECTION ( 'NONE',  ( 3.491481338843133355E-15, -1.219242935835426903E-16, 1.000000000000000000 ) ) ;
#65 = APPROVAL_PERSON_ORGANIZATION ( #190, #81, #158 ) ;
#66 = APPLICATION_PROTOCOL_DEFINITION ( 'international standard', 'config_control_design', 1994, #218 ) ;
#67 = CARTESIAN_POINT ( 'NONE',  ( 1.018687894544877643E-14, -0.6681483474218601337, 2.917638090205028512 ) ) ;
#68 = AXIS2_PLACEMENT_3D ( 'NONE', #97, #3, #50 ) ;
#69 = ORIENTED_EDGE ( 'NONE', *, *, #63, .T. ) ;
#70 = APPROVAL_ROLE ( '' ) ;
#71 = PERSON_AND_ORGANIZATION_ROLE ( 'classification_officer' ) ;
#72 = AXIS2_PLACEMENT_3D ( 'NONE', #43, #119, #153 ) ;
#73 = PRODUCT_DEFINITION_FORMATION_WITH_SPECIFIED_SOURCE ( 'ANY', '', #48, .NOT_KNOWN. ) ;
#74 = DIRECTION ( 'NONE',  ( 0.0000000000000000000, 1.000000000000000000, 0.0000000000000000000 ) ) ;
#75 = FACE_OUTER_BOUND ( 'NONE', #200, .T. ) ;
#76 = ADVANCED_FACE ( 'NONE', ( #167, #121 ), #120, .T. ) ;
#77 = DIRECTION ( 'NONE',  ( 3.491481338843133355E-15, -1.219242935835426903E-16, 1.000000000000000000 ) ) ;
#78 = FACE_OUTER_BOUND ( 'NONE', #17, .T. ) ;
#79 = LOCAL_TIME ( 10, 45, 31.00000000000000000, #156 ) ;
#80 = DIRECTION ( 'NONE',  ( 3.491481338843133355E-15, -1.219242935835426903E-16, 1.000000000000000000 ) ) ;
#81 = APPROVAL ( #176, 'UNSPECIFIED' ) ;
#82 = DIRECTION ( 'NONE',  ( 1.000000000000000000, 0.0000000000000000000, 0.0000000000000000000 ) ) ;
#83 = CC_DESIGN_PERSON_AND_ORGANIZATION_ASSIGNMENT ( #160, #184, ( #73 ) ) ;
#84 = AXIS2_PLACEMENT_3D ( 'NONE', #202, #77, #224 ) ;
#85 = CARTESIAN_POINT ( 'NONE',  ( 8.379555213223516897E-15, -2.926183046005023679E-16, 2.399999999999999467 ) ) ;
#86 = CC_DESIGN_PERSON_AND_ORGANIZATION_ASSIGNMENT ( #26, #216, ( #48 ) ) ;
#87 = CARTESIAN_POINT ( 'NONE',  ( 2.102622686551772296E-14, -1.499999999999992228, 6.022150721986831101 ) ) ;
#88 = EDGE_LOOP ( 'NONE', ( #241 ) ) ;
#89 = AXIS2_PLACEMENT_3D ( 'NONE', #22, #188, #168 ) ;
#90 = SECURITY_CLASSIFICATION ( '', '', #37 ) ;
#91 = EDGE_LOOP ( 'NONE', ( #13 ) ) ;
#92 = SHAPE_DEFINITION_REPRESENTATION ( #195, #41 ) ;
#93 = FACE_OUTER_BOUND ( 'NONE', #201, .T. ) ;
#94 = CALENDAR_DATE ( 2021, 1, 11 ) ;
#95 = CLOSED_SHELL ( 'NONE', ( #98, #11, #210, #118, #141, #112 ) ) ;
#96 = LOCAL_TIME ( 10, 45, 31.00000000000000000, #25 ) ;
#97 = CARTESIAN_POINT ( 'NONE',  ( 1.326762908760390423E-13, -4.653657836759941941E-15, 38.00000000000000000 ) ) ;
#98 = ADVANCED_FACE ( 'NONE', ( #78, #189 ), #154, .T. ) ;
#99 = CARTESIAN_POINT ( 'NONE',  ( 1.326762908760390423E-13, -4.653657836759941941E-15, 38.00000000000000000 ) ) ;
#100 = DIRECTION ( 'NONE',  ( 0.0000000000000000000, -1.000000000000000000, 0.0000000000000000000 ) ) ;
#101 = PLANE ( 'NONE',  #212 ) ;
#102 = CARTESIAN_POINT ( 'NONE',  ( 1.316288464743861212E-13, 1.499999999999989120, 37.69999999999999574 ) ) ;
#103 = AXIS2_PLACEMENT_3D ( 'NONE', #38, #80, #221 ) ;
#104 = DATE_AND_TIME ( #14, #79 ) ;
#105 = CARTESIAN_POINT ( 'NONE',  ( -3.717720202542832830E-30, -0.5999999999999998668, -1.064797385906883119E-15 ) ) ;
#106 = EDGE_CURVE ( 'NONE', #230, #230, #214, .T. ) ;
#107 = AXIS2_PLACEMENT_3D ( 'NONE', #165, #20, #7 ) ;
#108 = LOCAL_TIME ( 10, 45, 31.00000000000000000, #166 ) ;
#109 = VERTEX_POINT ( 'NONE', #124 ) ;
#110 = DATE_AND_TIME ( #237, #24 ) ;
#111 = ORIENTED_EDGE ( 'NONE', *, *, #243, .T. ) ;
#112 = ADVANCED_FACE ( 'NONE', ( #115 ), #55, .F. ) ;
#113 = CLOSED_SHELL ( 'NONE', ( #33, #76, #205 ) ) ;
#114 = PERSON_AND_ORGANIZATION ( #47, #45 ) ;
#115 = FACE_OUTER_BOUND ( 'NONE', #238, .T. ) ;
#116 = DATE_AND_TIME ( #94, #157 ) ;
#117 = DIRECTION ( 'NONE',  ( 3.491481338843133355E-15, -1.224646799147353207E-16, 1.000000000000000000 ) ) ;
#118 = ADVANCED_FACE ( 'NONE', ( #135, #203 ), #59, .T. ) ;
#119 = DIRECTION ( 'NONE',  ( -3.491481338843133355E-15, 1.224646799147353207E-16, -1.000000000000000000 ) ) ;
#120 = CYLINDRICAL_SURFACE ( 'NONE', #138, 0.6000000000000000888 ) ;
#121 = FACE_OUTER_BOUND ( 'NONE', #91, .T. ) ;
#122 = CALENDAR_DATE ( 2021, 1, 11 ) ;
#123 = CIRCLE ( 'NONE', #103, 0.5999999999999998668 ) ;
#124 = CARTESIAN_POINT ( 'NONE',  ( 8.379555213223516897E-15, -0.6000000000000005329, 2.399999999999999467 ) ) ;
#125 = ORIENTED_EDGE ( 'NONE', *, *, #63, .F. ) ;
#126 = MANIFOLD_SOLID_BREP ( 'Corps-Déplacer/Copier1[2]', #113 ) ;
#127 = EDGE_LOOP ( 'NONE', ( #31 ) ) ;
#128 = AXIS2_PLACEMENT_3D ( 'NONE', #5, #117, #36 ) ;
#129 = APPROVAL_DATE_TIME ( #110, #81 ) ;
#130 = MANIFOLD_SOLID_BREP ( 'Corps-Déplacer/Copier1[1]', #95 ) ;
#131 = ORIENTED_EDGE ( 'NONE', *, *, #106, .T. ) ;
#132 = EDGE_LOOP ( 'NONE', ( #28 ) ) ;
#133 = APPROVAL_DATE_TIME ( #164, #196 ) ;
#134 = AXIS2_PLACEMENT_3D ( 'NONE', #99, #1, #74 ) ;
#135 = FACE_BOUND ( 'NONE', #174, .T. ) ;
#136 = FACE_OUTER_BOUND ( 'NONE', #179, .T. ) ;
#137 = FACE_OUTER_BOUND ( 'NONE', #132, .T. ) ;
#138 = AXIS2_PLACEMENT_3D ( 'NONE', #185, #204, #21 ) ;
#139 = DIRECTION ( 'NONE',  ( 3.491481338843133355E-15, -1.224646799147353207E-16, 1.000000000000000000 ) ) ;
#140 = CARTESIAN_POINT ( 'NONE',  ( 8.379555213223518475E-15, 1.124819836996384995E-32, 2.399999999999999911 ) ) ;
#141 = ADVANCED_FACE ( 'NONE', ( #152, #136 ), #180, .F. ) ;
#142 = VERTEX_POINT ( 'NONE', #199 ) ;
#143 = CARTESIAN_POINT ( 'NONE',  ( 1.326762908760390423E-13, 1.199999999999989297, 38.00000000000000000 ) ) ;
#144 = CARTESIAN_POINT ( 'NONE',  ( 0.0000000000000000000, 0.0000000000000000000, 0.0000000000000000000 ) ) ;
#145 = VERTEX_POINT ( 'NONE', #143 ) ;
#146 = APPROVAL_DATE_TIME ( #233, #220 ) ;
#147 = ORIENTED_EDGE ( 'NONE', *, *, #243, .F. ) ;
#148 = ORIENTED_EDGE ( 'NONE', *, *, #106, .F. ) ;
#149 = DATE_TIME_ROLE ( 'classification_date' ) ;
#150 = CIRCLE ( 'NONE', #72, 1.499999999999993783 ) ;
#151 = DIRECTION ( 'NONE',  ( 0.0000000000000000000, -1.000000000000000000, 0.0000000000000000000 ) ) ;
#152 = FACE_OUTER_BOUND ( 'NONE', #159, .T. ) ;
#153 = DIRECTION ( 'NONE',  ( 0.0000000000000000000, 1.000000000000000000, 0.0000000000000000000 ) ) ;
#154 = CYLINDRICAL_SURFACE ( 'NONE', #191, 1.499999999999991562 ) ;
#155 = EDGE_CURVE ( 'NONE', #173, #173, #150, .T. ) ;
#156 = COORDINATED_UNIVERSAL_TIME_OFFSET ( 1, 0, .AHEAD. ) ;
#157 = LOCAL_TIME ( 10, 45, 31.00000000000000000, #16 ) ;
#158 = APPROVAL_ROLE ( '' ) ;
#159 = EDGE_LOOP ( 'NONE', ( #111 ) ) ;
#160 = PERSON_AND_ORGANIZATION ( #47, #45 ) ;
#161 = CC_DESIGN_DATE_AND_TIME_ASSIGNMENT ( #116, #149, ( #90 ) ) ;
#162 = PERSON_AND_ORGANIZATION ( #47, #45 ) ;
#163 = PRODUCT_DEFINITION ( 'UNKNOWN', '', #73, #229 ) ;
#164 = DATE_AND_TIME ( #18, #108 ) ;
#165 = CARTESIAN_POINT ( 'NONE',  ( 1.326762908760390423E-13, 8.998558695971030697E-33, 38.00000000000000000 ) ) ;
#166 = COORDINATED_UNIVERSAL_TIME_OFFSET ( 1, 0, .AHEAD. ) ;
#167 = FACE_OUTER_BOUND ( 'NONE', #88, .T. ) ;
#168 = DIRECTION ( 'NONE',  ( 0.0000000000000000000, -1.000000000000000000, 0.0000000000000000000 ) ) ;
#169 = DIRECTION ( 'NONE',  ( 3.491481338843133355E-15, -1.219242935835426903E-16, 1.000000000000000000 ) ) ;
#170 = CIRCLE ( 'NONE', #231, 0.6000000000000001998 ) ;
#171 = APPROVAL_STATUS ( 'not_yet_approved' ) ;
#172 = CC_DESIGN_PERSON_AND_ORGANIZATION_ASSIGNMENT ( #114, #39, ( #73 ) ) ;
#173 = VERTEX_POINT ( 'NONE', #102 ) ;
#174 = EDGE_LOOP ( 'NONE', ( #69 ) ) ;
#175 = APPROVAL_PERSON_ORGANIZATION ( #211, #220, #44 ) ;
#176 = APPROVAL_STATUS ( 'not_yet_approved' ) ;
#177 = PERSON_AND_ORGANIZATION_ROLE ( 'creator' ) ;
#178 = ORIENTED_EDGE ( 'NONE', *, *, #213, .F. ) ;
#179 = EDGE_LOOP ( 'NONE', ( #125 ) ) ;
#180 = TOROIDAL_SURFACE ( 'NONE', #222, 2.600000000000000089, 2.000000000000000000 ) ;
#181 = DIRECTION ( 'NONE',  ( 3.491481338843133355E-15, -1.219242935835426903E-16, 1.000000000000000000 ) ) ;
#182 = APPROVAL_STATUS ( 'not_yet_approved' ) ;
#183 = DIRECTION ( 'NONE',  ( -4.314692858862359921E-31, -1.000000000000000000, -1.219242935835426903E-16 ) ) ;
#184 = PERSON_AND_ORGANIZATION_ROLE ( 'creator' ) ;
#185 = CARTESIAN_POINT ( 'NONE',  ( 0.0000000000000000000, 0.0000000000000000000, 0.0000000000000000000 ) ) ;
#186 = APPLICATION_CONTEXT ( 'configuration controlled 3d designs of mechanical parts and assemblies' ) ;
#187 = CC_DESIGN_PERSON_AND_ORGANIZATION_ASSIGNMENT ( #162, #71, ( #90 ) ) ;
#188 = DIRECTION ( 'NONE',  ( -3.491481338843133355E-15, 1.219242935835426903E-16, -1.000000000000000000 ) ) ;
#189 = FACE_OUTER_BOUND ( 'NONE', #219, .T. ) ;
#190 = PERSON_AND_ORGANIZATION ( #47, #45 ) ;
#191 = AXIS2_PLACEMENT_3D ( 'NONE', #227, #226, #56 ) ;
#192 =( NAMED_UNIT ( * ) SI_UNIT ( $, .STERADIAN. ) SOLID_ANGLE_UNIT ( ) );
#193 = DIRECTION ( 'NONE',  ( 0.0000000000000000000, -1.000000000000000000, 0.0000000000000000000 ) ) ;
#194 = MECHANICAL_CONTEXT ( 'NONE', #218, 'mechanical' ) ;
#195 = PRODUCT_DEFINITION_SHAPE ( 'NONE', 'NONE',  #163 ) ;
#196 = APPROVAL ( #182, 'UNSPECIFIED' ) ;
#197 = ORIENTED_EDGE ( 'NONE', *, *, #46, .F. ) ;
#198 = AXIS2_PLACEMENT_3D ( 'NONE', #144, #217, #82 ) ;
#199 = CARTESIAN_POINT ( 'NONE',  ( 8.379555213223516897E-15, -0.6000000000000005329, 2.399999999999999467 ) ) ;
#200 = EDGE_LOOP ( 'NONE', ( #34 ) ) ;
#201 = EDGE_LOOP ( 'NONE', ( #178 ) ) ;
#202 = CARTESIAN_POINT ( 'NONE',  ( 3.405661261575925076E-14, -1.189274130962603715E-15, 9.754201529555809103 ) ) ;
#203 = FACE_OUTER_BOUND ( 'NONE', #236, .T. ) ;
#204 = DIRECTION ( 'NONE',  ( 3.491481338843133355E-15, -1.219242935835426903E-16, 1.000000000000000000 ) ) ;
#205 = ADVANCED_FACE ( 'NONE', ( #23 ), #101, .F. ) ;
#206 = CONICAL_SURFACE ( 'NONE', #134, 1.199999999999993738, 0.7853981633974453924 ) ;
#207 =( GEOMETRIC_REPRESENTATION_CONTEXT ( 3 ) GLOBAL_UNCERTAINTY_ASSIGNED_CONTEXT ( ( #10 ) ) GLOBAL_UNIT_ASSIGNED_CONTEXT ( ( #12, #235, #192 ) ) REPRESENTATION_CONTEXT ( 'NONE', 'WORKASPACE' ) );
#208 = DIRECTION ( 'NONE',  ( -4.275831445896958607E-31, -1.000000000000000000, -1.224646799147353207E-16 ) ) ;
#209 = FACE_BOUND ( 'NONE', #127, .T. ) ;
#210 = ADVANCED_FACE ( 'NONE', ( #93 ), #42, .F. ) ;
#211 = PERSON_AND_ORGANIZATION ( #47, #45 ) ;
#212 = AXIS2_PLACEMENT_3D ( 'NONE', #19, #139, #208 ) ;
#213 = EDGE_CURVE ( 'NONE', #145, #145, #2, .T. ) ;
#214 = CIRCLE ( 'NONE', #89, 1.499999999999991562 ) ;
#215 = CC_DESIGN_APPROVAL ( #196, ( #90 ) ) ;
#216 = PERSON_AND_ORGANIZATION_ROLE ( 'design_owner' ) ;
#217 = DIRECTION ( 'NONE',  ( 0.0000000000000000000, 0.0000000000000000000, 1.000000000000000000 ) ) ;
#218 = APPLICATION_CONTEXT ( 'configuration controlled 3d designs of mechanical parts and assemblies' ) ;
#219 = EDGE_LOOP ( 'NONE', ( #148 ) ) ;
#220 = APPROVAL ( #171, 'UNSPECIFIED' ) ;
#221 = DIRECTION ( 'NONE',  ( -4.256963957985706261E-31, -1.000000000000000000, -1.219242935835426903E-16 ) ) ;
#222 = AXIS2_PLACEMENT_3D ( 'NONE', #57, #181, #183 ) ;
#223 = CC_DESIGN_SECURITY_CLASSIFICATION ( #90, ( #73 ) ) ;
#224 = DIRECTION ( 'NONE',  ( 0.0000000000000000000, -1.000000000000000000, 0.0000000000000000000 ) ) ;
#225 = DIRECTION ( 'NONE',  ( 3.491481338843133355E-15, -1.219242935835426903E-16, 1.000000000000000000 ) ) ;
#226 = DIRECTION ( 'NONE',  ( -3.491481338843133355E-15, 1.224646799147353207E-16, -1.000000000000000000 ) ) ;
#227 = CARTESIAN_POINT ( 'NONE',  ( 0.0000000000000000000, 0.0000000000000000000, 0.0000000000000000000 ) ) ;
#228 = COORDINATED_UNIVERSAL_TIME_OFFSET ( 1, 0, .AHEAD. ) ;
#229 = DESIGN_CONTEXT ( 'detailed design', #186, 'design' ) ;
#230 = VERTEX_POINT ( 'NONE', #87 ) ;
#231 = AXIS2_PLACEMENT_3D ( 'NONE', #15, #225, #100 ) ;
#232 = CC_DESIGN_PERSON_AND_ORGANIZATION_ASSIGNMENT ( #32, #177, ( #163 ) ) ;
#233 = DATE_AND_TIME ( #122, #96 ) ;
#234 = CC_DESIGN_DATE_AND_TIME_ASSIGNMENT ( #104, #61, ( #163 ) ) ;
#235 =( NAMED_UNIT ( * ) PLANE_ANGLE_UNIT ( ) SI_UNIT ( $, .RADIAN. ) );
#236 = EDGE_LOOP ( 'NONE', ( #131 ) ) ;
#237 = CALENDAR_DATE ( 2021, 1, 11 ) ;
#238 = EDGE_LOOP ( 'NONE', ( #147 ) ) ;
#239 = PERSON_AND_ORGANIZATION ( #47, #45 ) ;
#240 = AXIS2_PLACEMENT_3D ( 'NONE', #60, #169, #151 ) ;
#241 = ORIENTED_EDGE ( 'NONE', *, *, #46, .T. ) ;
#242 = CC_DESIGN_APPROVAL ( #220, ( #73 ) ) ;
#243 = EDGE_CURVE ( 'NONE', #142, #142, #35, .T. ) ;
ENDSEC;
END-ISO-10303-21;
