ISO-10303-21;
HEADER;
FILE_DESCRIPTION (( 'STEP AP203' ),
    '1' );
FILE_NAME ('36235.step',
    '2021-11-01T09:45:31',
    ( '' ),
    ( '' ),
    'SwSTEP 2.0',
    'SolidWorks 2019',
    '' );
FILE_SCHEMA (( 'CONFIG_CONTROL_DESIGN' ));
ENDSEC;

DATA;
#1 = ADVANCED_FACE ( 'NONE', ( #50 ), #127, .F. ) ;
#2 = DESIGN_CONTEXT ( 'detailed design', #44, 'design' ) ;
#3 = CARTESIAN_POINT ( 'NONE',  ( 1.326762908760390423E-13, 8.998558695971030697E-33, 38.00000000000000000 ) ) ;
#4 = CIRCLE ( 'NONE', #94, 1.499999999999993783 ) ;
#5 = COORDINATED_UNIVERSAL_TIME_OFFSET ( 1, 0, .AHEAD. ) ;
#6 = DIRECTION ( 'NONE',  ( 0.0000000000000000000, 1.000000000000000000, 0.0000000000000000000 ) ) ;
#7 = CARTESIAN_POINT ( 'NONE',  ( 0.0000000000000000000, 0.0000000000000000000, 0.0000000000000000000 ) ) ;
#8 = FACE_OUTER_BOUND ( 'NONE', #168, .T. ) ;
#9 = DIRECTION ( 'NONE',  ( 3.491481338843133355E-15, -1.219242935835426903E-16, 1.000000000000000000 ) ) ;
#10 = EDGE_CURVE ( 'NONE', #43, #43, #233, .T. ) ;
#11 = ADVANCED_FACE ( 'NONE', ( #8 ), #35, .F. ) ;
#12 = DIRECTION ( 'NONE',  ( 1.000000000000000000, 0.0000000000000000000, 0.0000000000000000000 ) ) ;
#13 = COORDINATED_UNIVERSAL_TIME_OFFSET ( 1, 0, .AHEAD. ) ;
#14 = VERTEX_POINT ( 'NONE', #202 ) ;
#15 = APPROVAL_ROLE ( '' ) ;
#16 = ORIENTED_EDGE ( 'NONE', *, *, #118, .T. ) ;
#17 = AXIS2_PLACEMENT_3D ( 'NONE', #155, #9, #114 ) ;
#18 = ADVANCED_FACE ( 'NONE', ( #76 ), #19, .F. ) ;
#19 = PLANE ( 'NONE',  #196 ) ;
#20 = CARTESIAN_POINT ( 'NONE',  ( 6.982962677686265133E-15, -2.438485871670853312E-16, 1.999999999999999556 ) ) ;
#21 = ORGANIZATION ( 'UNSPECIFIED', 'UNSPECIFIED', '' ) ;
#22 = FACE_OUTER_BOUND ( 'NONE', #103, .T. ) ;
#23 = DIRECTION ( 'NONE',  ( -4.275831445896958607E-31, -1.000000000000000000, -1.224646799147353207E-16 ) ) ;
#24 = CARTESIAN_POINT ( 'NONE',  ( 6.982962677686265133E-15, -4.336808689942017736E-16, 1.999999999999999556 ) ) ;
#25 = AXIS2_PLACEMENT_3D ( 'NONE', #7, #232, #113 ) ;
#26 = ADVANCED_FACE ( 'NONE', ( #192, #72 ), #71, .T. ) ;
#27 = DIRECTION ( 'NONE',  ( -3.491481338843133355E-15, 1.224646799147353207E-16, -1.000000000000000000 ) ) ;
#28 = APPROVAL_DATE_TIME ( #221, #157 ) ;
#29 = CALENDAR_DATE ( 2021, 1, 11 ) ;
#30 = EDGE_CURVE ( 'NONE', #115, #115, #81, .T. ) ;
#31 = APPROVAL_PERSON_ORGANIZATION ( #237, #199, #146 ) ;
#32 = ORIENTED_EDGE ( 'NONE', *, *, #42, .T. ) ;
#33 = EDGE_LOOP ( 'NONE', ( #147 ) ) ;
#34 = EDGE_LOOP ( 'NONE', ( #203 ) ) ;
#35 = PLANE ( 'NONE',  #151 ) ;
#36 = SECURITY_CLASSIFICATION_LEVEL ( 'unclassified' ) ;
#37 = DIRECTION ( 'NONE',  ( 4.275831445896958607E-31, 1.000000000000000000, 1.224646799147353207E-16 ) ) ;
#38 = CC_DESIGN_PERSON_AND_ORGANIZATION_ASSIGNMENT ( #86, #68, ( #138 ) ) ;
#39 = FACE_OUTER_BOUND ( 'NONE', #34, .T. ) ;
#40 = CARTESIAN_POINT ( 'NONE',  ( 1.326762908760390423E-13, -4.653657836759941941E-15, 38.00000000000000000 ) ) ;
#41 = CARTESIAN_POINT ( 'NONE',  ( 3.396305865524615020E-14, -1.186007179362260028E-15, 9.727406610312705482 ) ) ;
#42 = EDGE_CURVE ( 'NONE', #182, #182, #217, .T. ) ;
#43 = VERTEX_POINT ( 'NONE', #216 ) ;
#44 = APPLICATION_CONTEXT ( 'configuration controlled 3d designs of mechanical parts and assemblies' ) ;
#45 = CC_DESIGN_APPROVAL ( #99, ( #108 ) ) ;
#46 = VERTEX_POINT ( 'NONE', #84 ) ;
#47 = EDGE_LOOP ( 'NONE', ( #162 ) ) ;
#48 = VERTEX_POINT ( 'NONE', #159 ) ;
#49 =( NAMED_UNIT ( * ) PLANE_ANGLE_UNIT ( ) SI_UNIT ( $, .RADIAN. ) );
#50 = FACE_OUTER_BOUND ( 'NONE', #33, .T. ) ;
#51 = ADVANCED_FACE ( 'NONE', ( #140, #134 ), #133, .T. ) ;
#52 = SHAPE_DEFINITION_REPRESENTATION ( #184, #143 ) ;
#53 = EDGE_LOOP ( 'NONE', ( #123 ) ) ;
#54 = AXIS2_PLACEMENT_3D ( 'NONE', #174, #60, #206 ) ;
#55 = DIRECTION ( 'NONE',  ( -3.491481338843133355E-15, 1.219242935835426903E-16, -1.000000000000000000 ) ) ;
#56 = CARTESIAN_POINT ( 'NONE',  ( 0.0000000000000000000, 0.0000000000000000000, 0.0000000000000000000 ) ) ;
#57 = CARTESIAN_POINT ( 'NONE',  ( 6.982962677686266711E-15, 1.124819836996384995E-32, 2.000000000000000000 ) ) ;
#58 = DIRECTION ( 'NONE',  ( 3.491481338843133355E-15, -1.224646799147353207E-16, 1.000000000000000000 ) ) ;
#59 = CLOSED_SHELL ( 'NONE', ( #130, #51, #18 ) ) ;
#60 = DIRECTION ( 'NONE',  ( 3.491481338843133355E-15, -1.219242935835426903E-16, 1.000000000000000000 ) ) ;
#61 = DATE_AND_TIME ( #29, #219 ) ;
#62 = VERTEX_POINT ( 'NONE', #79 ) ;
#63 = CC_DESIGN_APPROVAL ( #199, ( #138 ) ) ;
#64 = CC_DESIGN_DATE_AND_TIME_ASSIGNMENT ( #158, #160, ( #191 ) ) ;
#65 = APPROVAL_STATUS ( 'not_yet_approved' ) ;
#66 = ORIENTED_EDGE ( 'NONE', *, *, #218, .F. ) ;
#67 = COORDINATED_UNIVERSAL_TIME_OFFSET ( 1, 0, .AHEAD. ) ;
#68 = PERSON_AND_ORGANIZATION_ROLE ( 'design_supplier' ) ;
#69 = PERSON_AND_ORGANIZATION ( #209, #21 ) ;
#70 = PERSON_AND_ORGANIZATION_ROLE ( 'classification_officer' ) ;
#71 = CONICAL_SURFACE ( 'NONE', #88, 1.199999999999993738, 0.7853981633974453924 ) ;
#72 = FACE_BOUND ( 'NONE', #164, .T. ) ;
#73 = CC_DESIGN_DATE_AND_TIME_ASSIGNMENT ( #169, #91, ( #108 ) ) ;
#74 = CARTESIAN_POINT ( 'NONE',  ( -1.282754905350004587E-30, 4.499298539707956128E-32, -3.673956068672651857E-16 ) ) ;
#75 = DIRECTION ( 'NONE',  ( 3.491481338843133355E-15, -1.224646799147353207E-16, 1.000000000000000000 ) ) ;
#76 = FACE_OUTER_BOUND ( 'NONE', #90, .T. ) ;
#77 =( GEOMETRIC_REPRESENTATION_CONTEXT ( 3 ) GLOBAL_UNCERTAINTY_ASSIGNED_CONTEXT ( ( #105 ) ) GLOBAL_UNIT_ASSIGNED_CONTEXT ( ( #125, #49, #102 ) ) REPRESENTATION_CONTEXT ( 'NONE', 'WORKASPACE' ) );
#78 = DIRECTION ( 'NONE',  ( -3.491481338843133355E-15, 1.224646799147353207E-16, -1.000000000000000000 ) ) ;
#79 = CARTESIAN_POINT ( 'NONE',  ( 6.982962677686265133E-15, -0.5000000000000000000, 1.999999999999999556 ) ) ;
#80 = MECHANICAL_CONTEXT ( 'NONE', #189, 'mechanical' ) ;
#81 = CIRCLE ( 'NONE', #17, 0.5681483474218603780 ) ;
#82 = CALENDAR_DATE ( 2021, 1, 11 ) ;
#83 = ORIENTED_EDGE ( 'NONE', *, *, #126, .T. ) ;
#84 = CARTESIAN_POINT ( 'NONE',  ( 1.326762908760390423E-13, 1.199999999999989297, 38.00000000000000000 ) ) ;
#85 = PRODUCT ( '36235', '36235', '', ( #80 ) ) ;
#86 = PERSON_AND_ORGANIZATION ( #209, #21 ) ;
#87 = ORIENTED_EDGE ( 'NONE', *, *, #126, .F. ) ;
#88 = AXIS2_PLACEMENT_3D ( 'NONE', #152, #213, #229 ) ;
#89 = CC_DESIGN_SECURITY_CLASSIFICATION ( #108, ( #138 ) ) ;
#90 = EDGE_LOOP ( 'NONE', ( #186 ) ) ;
#91 = DATE_TIME_ROLE ( 'classification_date' ) ;
#92 = CARTESIAN_POINT ( 'NONE',  ( 2.093267290500461294E-14, -7.309795210315222952E-16, 5.995355802743726592 ) ) ;
#93 = CIRCLE ( 'NONE', #240, 0.4999999999999997780 ) ;
#94 = AXIS2_PLACEMENT_3D ( 'NONE', #195, #27, #214 ) ;
#95 = DIRECTION ( 'NONE',  ( 3.491481338843133355E-15, -1.219242935835426903E-16, 1.000000000000000000 ) ) ;
#96 = DIRECTION ( 'NONE',  ( 3.491481338843133355E-15, -1.219242935835426903E-16, 1.000000000000000000 ) ) ;
#97 = DIRECTION ( 'NONE',  ( 0.0000000000000000000, -1.000000000000000000, 0.0000000000000000000 ) ) ;
#98 = CARTESIAN_POINT ( 'NONE',  ( 2.093267290500461294E-14, -1.499999999999992228, 5.995355802743726592 ) ) ;
#99 = APPROVAL ( #150, 'UNSPECIFIED' ) ;
#100 = APPROVAL_STATUS ( 'not_yet_approved' ) ;
#101 = AXIS2_PLACEMENT_3D ( 'NONE', #24, #141, #198 ) ;
#102 =( NAMED_UNIT ( * ) SI_UNIT ( $, .STERADIAN. ) SOLID_ANGLE_UNIT ( ) );
#103 = EDGE_LOOP ( 'NONE', ( #32 ) ) ;
#104 = PERSON_AND_ORGANIZATION_ROLE ( 'creator' ) ;
#105 = UNCERTAINTY_MEASURE_WITH_UNIT (LENGTH_MEASURE( 1.000000000000000082E-05 ), #125, 'distance_accuracy_value', 'NONE');
#106 = DATE_AND_TIME ( #225, #234 ) ;
#107 = AXIS2_PLACEMENT_3D ( 'NONE', #56, #136, #194 ) ;
#108 = SECURITY_CLASSIFICATION ( '', '', #36 ) ;
#109 = CC_DESIGN_PERSON_AND_ORGANIZATION_ASSIGNMENT ( #235, #238, ( #85 ) ) ;
#110 = CARTESIAN_POINT ( 'NONE',  ( 6.982962677686265133E-15, -2.438485871670853312E-16, 1.999999999999999556 ) ) ;
#111 = DIRECTION ( 'NONE',  ( 0.0000000000000000000, -1.000000000000000000, 0.0000000000000000000 ) ) ;
#112 = APPROVAL_DATE_TIME ( #106, #99 ) ;
#113 = DIRECTION ( 'NONE',  ( 4.275831445896958607E-31, 1.000000000000000000, 1.224646799147353207E-16 ) ) ;
#114 = DIRECTION ( 'NONE',  ( 0.0000000000000000000, -1.000000000000000000, 0.0000000000000000000 ) ) ;
#115 = VERTEX_POINT ( 'NONE', #178 ) ;
#116 = AXIS2_PLACEMENT_3D ( 'NONE', #41, #96, #173 ) ;
#117 = EDGE_CURVE ( 'NONE', #62, #62, #93, .T. ) ;
#118 = EDGE_CURVE ( 'NONE', #14, #14, #180, .T. ) ;
#119 = PERSON_AND_ORGANIZATION ( #209, #21 ) ;
#120 = MANIFOLD_SOLID_BREP ( 'Corps-Déplacer/Copier1[2]', #59 ) ;
#121 = ORIENTED_EDGE ( 'NONE', *, *, #218, .T. ) ;
#122 = COORDINATED_UNIVERSAL_TIME_OFFSET ( 1, 0, .AHEAD. ) ;
#123 = ORIENTED_EDGE ( 'NONE', *, *, #10, .T. ) ;
#124 = AXIS2_PLACEMENT_3D ( 'NONE', #40, #78, #6 ) ;
#125 =( LENGTH_UNIT ( ) NAMED_UNIT ( * ) SI_UNIT ( .MILLI., .METRE. ) );
#126 = EDGE_CURVE ( 'NONE', #46, #46, #137, .T. ) ;
#127 = PLANE ( 'NONE',  #187 ) ;
#128 = PERSON_AND_ORGANIZATION ( #209, #21 ) ;
#129 = EDGE_LOOP ( 'NONE', ( #183 ) ) ;
#130 = ADVANCED_FACE ( 'NONE', ( #190 ), #230, .T. ) ;
#131 = AXIS2_PLACEMENT_3D ( 'NONE', #110, #171, #176 ) ;
#132 = TOROIDAL_SURFACE ( 'NONE', #101, 2.500000000000000444, 2.000000000000000000 ) ;
#133 = CYLINDRICAL_SURFACE ( 'NONE', #107, 0.4999999999999998890 ) ;
#134 = FACE_OUTER_BOUND ( 'NONE', #129, .T. ) ;
#135 = PERSON_AND_ORGANIZATION ( #209, #21 ) ;
#136 = DIRECTION ( 'NONE',  ( 3.491481338843133355E-15, -1.219242935835426903E-16, 1.000000000000000000 ) ) ;
#137 = CIRCLE ( 'NONE', #124, 1.199999999999993738 ) ;
#138 = PRODUCT_DEFINITION_FORMATION_WITH_SPECIFIED_SOURCE ( 'ANY', '', #85, .NOT_KNOWN. ) ;
#139 = FACE_OUTER_BOUND ( 'NONE', #47, .T. ) ;
#140 = FACE_OUTER_BOUND ( 'NONE', #53, .T. ) ;
#141 = DIRECTION ( 'NONE',  ( 3.491481338843133355E-15, -1.219242935835426903E-16, 1.000000000000000000 ) ) ;
#142 = APPROVAL_PERSON_ORGANIZATION ( #119, #157, #15 ) ;
#143 = ADVANCED_BREP_SHAPE_REPRESENTATION ( '36235', ( #204, #120, #144 ), #77 ) ;
#144 = AXIS2_PLACEMENT_3D ( 'NONE', #177, #220, #12 ) ;
#145 = APPLICATION_PROTOCOL_DEFINITION ( 'international standard', 'config_control_design', 1994, #44 ) ;
#146 = APPROVAL_ROLE ( '' ) ;
#147 = ORIENTED_EDGE ( 'NONE', *, *, #118, .F. ) ;
#148 = CC_DESIGN_PERSON_AND_ORGANIZATION_ASSIGNMENT ( #185, #104, ( #191 ) ) ;
#149 = EDGE_LOOP ( 'NONE', ( #163 ) ) ;
#150 = APPROVAL_STATUS ( 'not_yet_approved' ) ;
#151 = AXIS2_PLACEMENT_3D ( 'NONE', #3, #208, #37 ) ;
#152 = CARTESIAN_POINT ( 'NONE',  ( 1.326762908760390423E-13, -4.653657836759941941E-15, 38.00000000000000000 ) ) ;
#153 = APPROVAL_ROLE ( '' ) ;
#154 = DIRECTION ( 'NONE',  ( -4.275831445896958607E-31, -1.000000000000000000, -1.224646799147353207E-16 ) ) ;
#155 = CARTESIAN_POINT ( 'NONE',  ( 8.790286409911523091E-15, -3.069612456472676549E-16, 2.517638090205028600 ) ) ;
#156 = FACE_OUTER_BOUND ( 'NONE', #241, .T. ) ;
#157 = APPROVAL ( #100, 'UNSPECIFIED' ) ;
#158 = DATE_AND_TIME ( #82, #181 ) ;
#159 = CARTESIAN_POINT ( 'NONE',  ( 1.316288464743861212E-13, 1.499999999999989120, 37.69999999999999574 ) ) ;
#160 = DATE_TIME_ROLE ( 'creation_date' ) ;
#161 = ADVANCED_FACE ( 'NONE', ( #156, #39 ), #212, .T. ) ;
#162 = ORIENTED_EDGE ( 'NONE', *, *, #30, .F. ) ;
#163 = ORIENTED_EDGE ( 'NONE', *, *, #117, .T. ) ;
#164 = EDGE_LOOP ( 'NONE', ( #83 ) ) ;
#165 = ADVANCED_FACE ( 'NONE', ( #193, #22 ), #228, .T. ) ;
#166 = CC_DESIGN_APPROVAL ( #157, ( #191 ) ) ;
#167 = COORDINATED_UNIVERSAL_TIME_OFFSET ( 1, 0, .AHEAD. ) ;
#168 = EDGE_LOOP ( 'NONE', ( #87 ) ) ;
#169 = DATE_AND_TIME ( #188, #197 ) ;
#170 = CARTESIAN_POINT ( 'NONE',  ( 6.982962677686266711E-15, 1.124819836996384995E-32, 2.000000000000000000 ) ) ;
#171 = DIRECTION ( 'NONE',  ( 3.491481338843133355E-15, -1.219242935835426903E-16, 1.000000000000000000 ) ) ;
#172 = CC_DESIGN_PERSON_AND_ORGANIZATION_ASSIGNMENT ( #135, #224, ( #138 ) ) ;
#173 = DIRECTION ( 'NONE',  ( 0.0000000000000000000, -1.000000000000000000, 0.0000000000000000000 ) ) ;
#174 = CARTESIAN_POINT ( 'NONE',  ( -3.419732725483832761E-30, 1.194187957302074866E-31, -9.794503803984032555E-16 ) ) ;
#175 = AXIS2_PLACEMENT_3D ( 'NONE', #57, #58, #210 ) ;
#176 = DIRECTION ( 'NONE',  ( 0.0000000000000000000, -1.000000000000000000, 0.0000000000000000000 ) ) ;
#177 = CARTESIAN_POINT ( 'NONE',  ( 0.0000000000000000000, 0.0000000000000000000, 0.0000000000000000000 ) ) ;
#178 = CARTESIAN_POINT ( 'NONE',  ( 8.790286409911523091E-15, -0.5681483474218607110, 2.517638090205028600 ) ) ;
#179 = PRODUCT_RELATED_PRODUCT_CATEGORY ( 'detail', '', ( #85 ) ) ;
#180 = CIRCLE ( 'NONE', #131, 0.4999999999999997780 ) ;
#181 = LOCAL_TIME ( 10, 45, 31.00000000000000000, #13 ) ;
#182 = VERTEX_POINT ( 'NONE', #98 ) ;
#183 = ORIENTED_EDGE ( 'NONE', *, *, #117, .F. ) ;
#184 = PRODUCT_DEFINITION_SHAPE ( 'NONE', 'NONE',  #191 ) ;
#185 = PERSON_AND_ORGANIZATION ( #209, #21 ) ;
#186 = ORIENTED_EDGE ( 'NONE', *, *, #10, .F. ) ;
#187 = AXIS2_PLACEMENT_3D ( 'NONE', #170, #75, #23 ) ;
#188 = CALENDAR_DATE ( 2021, 1, 11 ) ;
#189 = APPLICATION_CONTEXT ( 'configuration controlled 3d designs of mechanical parts and assemblies' ) ;
#190 = FACE_OUTER_BOUND ( 'NONE', #149, .T. ) ;
#191 = PRODUCT_DEFINITION ( 'UNKNOWN', '', #138, #2 ) ;
#192 = FACE_OUTER_BOUND ( 'NONE', #223, .T. ) ;
#193 = FACE_BOUND ( 'NONE', #205, .T. ) ;
#194 = DIRECTION ( 'NONE',  ( -4.256963957985708889E-31, -1.000000000000000000, -1.219242935835426903E-16 ) ) ;
#195 = CARTESIAN_POINT ( 'NONE',  ( 1.316288464743861212E-13, -4.616918432785521081E-15, 37.69999999999999574 ) ) ;
#196 = AXIS2_PLACEMENT_3D ( 'NONE', #74, #226, #154 ) ;
#197 = LOCAL_TIME ( 10, 45, 31.00000000000000000, #5 ) ;
#198 = DIRECTION ( 'NONE',  ( -4.315975723326284799E-31, -1.000000000000000000, -1.219242935835426903E-16 ) ) ;
#199 = APPROVAL ( #65, 'UNSPECIFIED' ) ;
#200 = CALENDAR_DATE ( 2021, 1, 11 ) ;
#201 = EDGE_LOOP ( 'NONE', ( #16 ) ) ;
#202 = CARTESIAN_POINT ( 'NONE',  ( 6.982962677686265133E-15, -0.5000000000000000000, 1.999999999999999556 ) ) ;
#203 = ORIENTED_EDGE ( 'NONE', *, *, #42, .F. ) ;
#204 = MANIFOLD_SOLID_BREP ( 'Corps-Déplacer/Copier1[1]', #215 ) ;
#205 = EDGE_LOOP ( 'NONE', ( #239 ) ) ;
#206 = DIRECTION ( 'NONE',  ( -4.256963957985712392E-31, -1.000000000000000000, -1.219242935835425424E-16 ) ) ;
#207 = ADVANCED_FACE ( 'NONE', ( #231, #139 ), #132, .F. ) ;
#208 = DIRECTION ( 'NONE',  ( -3.491481338843133355E-15, 1.224646799147353207E-16, -1.000000000000000000 ) ) ;
#209 = PERSON ( 'UNSPECIFIED', 'UNSPECIFIED', 'UNSPECIFIED', ('UNSPECIFIED'), ('UNSPECIFIED'), ('UNSPECIFIED') ) ;
#210 = DIRECTION ( 'NONE',  ( -4.275831445896958607E-31, -1.000000000000000000, -1.224646799147353207E-16 ) ) ;
#211 = AXIS2_PLACEMENT_3D ( 'NONE', #92, #55, #111 ) ;
#212 = CYLINDRICAL_SURFACE ( 'NONE', #25, 1.499999999999991562 ) ;
#213 = DIRECTION ( 'NONE',  ( -3.491481338843133355E-15, 1.224646799147353207E-16, -1.000000000000000000 ) ) ;
#214 = DIRECTION ( 'NONE',  ( 0.0000000000000000000, 1.000000000000000000, 0.0000000000000000000 ) ) ;
#215 = CLOSED_SHELL ( 'NONE', ( #161, #26, #11, #165, #207, #1 ) ) ;
#216 = CARTESIAN_POINT ( 'NONE',  ( -3.632580923383118425E-30, -0.5000000000000000000, -1.040412527190174502E-15 ) ) ;
#217 = CIRCLE ( 'NONE', #211, 1.499999999999991562 ) ;
#218 = EDGE_CURVE ( 'NONE', #48, #48, #4, .T. ) ;
#219 = LOCAL_TIME ( 10, 45, 31.00000000000000000, #122 ) ;
#220 = DIRECTION ( 'NONE',  ( 0.0000000000000000000, 0.0000000000000000000, 1.000000000000000000 ) ) ;
#221 = DATE_AND_TIME ( #200, #236 ) ;
#222 = APPLICATION_PROTOCOL_DEFINITION ( 'international standard', 'config_control_design', 1994, #189 ) ;
#223 = EDGE_LOOP ( 'NONE', ( #66 ) ) ;
#224 = PERSON_AND_ORGANIZATION_ROLE ( 'creator' ) ;
#225 = CALENDAR_DATE ( 2021, 1, 11 ) ;
#226 = DIRECTION ( 'NONE',  ( 3.491481338843133355E-15, -1.224646799147353207E-16, 1.000000000000000000 ) ) ;
#227 = CC_DESIGN_PERSON_AND_ORGANIZATION_ASSIGNMENT ( #128, #70, ( #108 ) ) ;
#228 = CONICAL_SURFACE ( 'NONE', #116, 2.499999999999992895, 0.2617993877991428575 ) ;
#229 = DIRECTION ( 'NONE',  ( 0.0000000000000000000, 1.000000000000000000, 0.0000000000000000000 ) ) ;
#230 = PLANE ( 'NONE',  #175 ) ;
#231 = FACE_OUTER_BOUND ( 'NONE', #201, .T. ) ;
#232 = DIRECTION ( 'NONE',  ( -3.491481338843133355E-15, 1.224646799147353207E-16, -1.000000000000000000 ) ) ;
#233 = CIRCLE ( 'NONE', #54, 0.5000000000000000000 ) ;
#234 = LOCAL_TIME ( 10, 45, 31.00000000000000000, #167 ) ;
#235 = PERSON_AND_ORGANIZATION ( #209, #21 ) ;
#236 = LOCAL_TIME ( 10, 45, 31.00000000000000000, #67 ) ;
#237 = PERSON_AND_ORGANIZATION ( #209, #21 ) ;
#238 = PERSON_AND_ORGANIZATION_ROLE ( 'design_owner' ) ;
#239 = ORIENTED_EDGE ( 'NONE', *, *, #30, .T. ) ;
#240 = AXIS2_PLACEMENT_3D ( 'NONE', #20, #95, #97 ) ;
#241 = EDGE_LOOP ( 'NONE', ( #121 ) ) ;
#242 = APPROVAL_PERSON_ORGANIZATION ( #69, #99, #153 ) ;
#243 = APPROVAL_DATE_TIME ( #61, #199 ) ;
ENDSEC;
END-ISO-10303-21;
