ISO-10303-21;
HEADER;
FILE_DESCRIPTION (( 'STEP AP203' ),
    '1' );
FILE_NAME ('36234.step',
    '2021-11-01T09:45:30',
    ( '' ),
    ( '' ),
    'SwSTEP 2.0',
    'SolidWorks 2019',
    '' );
FILE_SCHEMA (( 'CONFIG_CONTROL_DESIGN' ));
ENDSEC;

DATA;
#1 = EDGE_CURVE ( 'NONE', #72, #72, #155, .T. ) ;
#2 = SHAPE_DEFINITION_REPRESENTATION ( #51, #141 ) ;
#3 = LOCAL_TIME ( 10, 45, 30.00000000000000000, #86 ) ;
#4 = EDGE_LOOP ( 'NONE', ( #113 ) ) ;
#5 = EDGE_LOOP ( 'NONE', ( #92 ) ) ;
#6 = ORIENTED_EDGE ( 'NONE', *, *, #233, .F. ) ;
#7 = CARTESIAN_POINT ( 'NONE',  ( 1.326762908760390423E-13, -4.653657836759941941E-15, 38.00000000000000000 ) ) ;
#8 = DIRECTION ( 'NONE',  ( -2.615303202592439531E-31, -1.000000000000000000, -1.219242935835426903E-16 ) ) ;
#9 = CYLINDRICAL_SURFACE ( 'NONE', #214, 1.499999999999991562 ) ;
#10 = DIRECTION ( 'NONE',  ( -4.275831445896958607E-31, -1.000000000000000000, -1.224646799147353207E-16 ) ) ;
#11 = DIRECTION ( 'NONE',  ( 3.491481338843133355E-15, -1.219242935835426903E-16, 1.000000000000000000 ) ) ;
#12 = TOROIDAL_SURFACE ( 'NONE', #56, 2.450000000000000622, 2.000000000000000444 ) ;
#13 = APPROVAL_DATE_TIME ( #172, #18 ) ;
#14 =( NAMED_UNIT ( * ) PLANE_ANGLE_UNIT ( ) SI_UNIT ( $, .RADIAN. ) );
#15 = DATE_AND_TIME ( #34, #217 ) ;
#16 = AXIS2_PLACEMENT_3D ( 'NONE', #46, #47, #163 ) ;
#17 = ORIENTED_EDGE ( 'NONE', *, *, #1, .T. ) ;
#18 = APPROVAL ( #48, 'UNSPECIFIED' ) ;
#19 = CARTESIAN_POINT ( 'NONE',  ( 6.284666409917637673E-15, -2.194637284503767636E-16, 1.799999999999999378 ) ) ;
#20 = CALENDAR_DATE ( 2021, 1, 11 ) ;
#21 = AXIS2_PLACEMENT_3D ( 'NONE', #29, #145, #10 ) ;
#22 = EDGE_LOOP ( 'NONE', ( #17 ) ) ;
#23 = AXIS2_PLACEMENT_3D ( 'NONE', #68, #154, #150 ) ;
#24 = CC_DESIGN_APPROVAL ( #88, ( #241 ) ) ;
#25 = ADVANCED_FACE ( 'NONE', ( #161, #26 ), #166, .T. ) ;
#26 = FACE_BOUND ( 'NONE', #182, .T. ) ;
#27 = DIRECTION ( 'NONE',  ( 3.491481338843133355E-15, -1.219242935835426903E-16, 1.000000000000000000 ) ) ;
#28 = DIRECTION ( 'NONE',  ( -3.491481338843133355E-15, 1.224646799147353207E-16, -1.000000000000000000 ) ) ;
#29 = CARTESIAN_POINT ( 'NONE',  ( 6.284666409917640040E-15, -2.602085213965217544E-16, 1.800000000000000044 ) ) ;
#30 = CARTESIAN_POINT ( 'NONE',  ( 8.091990142142894843E-15, -2.825763869305590873E-16, 2.317638090205028423 ) ) ;
#31 = APPLICATION_PROTOCOL_DEFINITION ( 'international standard', 'config_control_design', 1994, #54 ) ;
#32 = PERSON_AND_ORGANIZATION ( #176, #35 ) ;
#33 = ADVANCED_FACE ( 'NONE', ( #165 ), #146, .F. ) ;
#34 = CALENDAR_DATE ( 2021, 1, 11 ) ;
#35 = ORGANIZATION ( 'UNSPECIFIED', 'UNSPECIFIED', '' ) ;
#36 = DATE_TIME_ROLE ( 'creation_date' ) ;
#37 = COORDINATED_UNIVERSAL_TIME_OFFSET ( 1, 0, .AHEAD. ) ;
#38 = MANIFOLD_SOLID_BREP ( 'Corps-Déplacer/Copier1[1]', #228 ) ;
#39 = EDGE_LOOP ( 'NONE', ( #215 ) ) ;
#40 = LOCAL_TIME ( 10, 45, 30.00000000000000000, #57 ) ;
#41 = ADVANCED_FACE ( 'NONE', ( #66 ), #149, .F. ) ;
#42 = ORIENTED_EDGE ( 'NONE', *, *, #49, .F. ) ;
#43 = CIRCLE ( 'NONE', #101, 0.4499999999999996780 ) ;
#44 = FACE_OUTER_BOUND ( 'NONE', #75, .T. ) ;
#45 = PLANE ( 'NONE',  #171 ) ;
#46 = CARTESIAN_POINT ( 'NONE',  ( 1.316288464743861212E-13, -4.616918432785521081E-15, 37.69999999999999574 ) ) ;
#47 = DIRECTION ( 'NONE',  ( -3.491481338843133355E-15, 1.224646799147353207E-16, -1.000000000000000000 ) ) ;
#48 = APPROVAL_STATUS ( 'not_yet_approved' ) ;
#49 = EDGE_CURVE ( 'NONE', #170, #170, #229, .T. ) ;
#50 = APPLICATION_PROTOCOL_DEFINITION ( 'international standard', 'config_control_design', 1994, #160 ) ;
#51 = PRODUCT_DEFINITION_SHAPE ( 'NONE', 'NONE',  #178 ) ;
#52 = CC_DESIGN_SECURITY_CLASSIFICATION ( #143, ( #241 ) ) ;
#53 = PERSON_AND_ORGANIZATION ( #176, #35 ) ;
#54 = APPLICATION_CONTEXT ( 'configuration controlled 3d designs of mechanical parts and assemblies' ) ;
#55 = DIRECTION ( 'NONE',  ( -3.491481338843133355E-15, 1.224646799147353207E-16, -1.000000000000000000 ) ) ;
#56 = AXIS2_PLACEMENT_3D ( 'NONE', #184, #121, #8 ) ;
#57 = COORDINATED_UNIVERSAL_TIME_OFFSET ( 1, 0, .AHEAD. ) ;
#58 = APPROVAL_ROLE ( '' ) ;
#59 = EDGE_LOOP ( 'NONE', ( #97 ) ) ;
#60 = EDGE_LOOP ( 'NONE', ( #157 ) ) ;
#61 = DIRECTION ( 'NONE',  ( -4.256963957985710640E-31, -1.000000000000000000, -1.219242935835426903E-16 ) ) ;
#62 = DIRECTION ( 'NONE',  ( 3.491481338843133355E-15, -1.224646799147353207E-16, 1.000000000000000000 ) ) ;
#63 = DIRECTION ( 'NONE',  ( 4.275831445896958607E-31, 1.000000000000000000, 1.224646799147353207E-16 ) ) ;
#64 = FACE_OUTER_BOUND ( 'NONE', #138, .T. ) ;
#65 = CONICAL_SURFACE ( 'NONE', #119, 2.499999999999992895, 0.2617993877991429685 ) ;
#66 = FACE_OUTER_BOUND ( 'NONE', #234, .T. ) ;
#67 = CC_DESIGN_DATE_AND_TIME_ASSIGNMENT ( #131, #36, ( #178 ) ) ;
#68 = CARTESIAN_POINT ( 'NONE',  ( 0.0000000000000000000, 0.0000000000000000000, 0.0000000000000000000 ) ) ;
#69 = CARTESIAN_POINT ( 'NONE',  ( 2.088589592474805950E-14, -1.499999999999992228, 5.981958343122173893 ) ) ;
#70 = AXIS2_PLACEMENT_3D ( 'NONE', #30, #203, #221 ) ;
#71 = CARTESIAN_POINT ( 'NONE',  ( 1.326762908760390423E-13, 1.199999999999989297, 38.00000000000000000 ) ) ;
#72 = VERTEX_POINT ( 'NONE', #205 ) ;
#73 = AXIS2_PLACEMENT_3D ( 'NONE', #19, #126, #223 ) ;
#74 = APPROVAL_PERSON_ORGANIZATION ( #53, #18, #127 ) ;
#75 = EDGE_LOOP ( 'NONE', ( #94 ) ) ;
#76 = ORIENTED_EDGE ( 'NONE', *, *, #49, .T. ) ;
#77 = CARTESIAN_POINT ( 'NONE',  ( 6.284666409917637673E-15, -2.194637284503767636E-16, 1.799999999999999378 ) ) ;
#78 = DIRECTION ( 'NONE',  ( -3.491481338843133355E-15, 1.224646799147353207E-16, -1.000000000000000000 ) ) ;
#79 = CC_DESIGN_PERSON_AND_ORGANIZATION_ASSIGNMENT ( #32, #207, ( #178 ) ) ;
#80 = CARTESIAN_POINT ( 'NONE',  ( -1.282754905350004587E-30, 4.499298539707956128E-32, -3.673956068672651857E-16 ) ) ;
#81 = FACE_BOUND ( 'NONE', #136, .T. ) ;
#82 = DIRECTION ( 'NONE',  ( 4.275831445896958607E-31, 1.000000000000000000, 1.224646799147353207E-16 ) ) ;
#83 = ADVANCED_FACE ( 'NONE', ( #81, #100 ), #65, .T. ) ;
#84 = AXIS2_PLACEMENT_3D ( 'NONE', #125, #202, #151 ) ;
#85 =( LENGTH_UNIT ( ) NAMED_UNIT ( * ) SI_UNIT ( .MILLI., .METRE. ) );
#86 = COORDINATED_UNIVERSAL_TIME_OFFSET ( 1, 0, .AHEAD. ) ;
#87 = CC_DESIGN_APPROVAL ( #18, ( #178 ) ) ;
#88 = APPROVAL ( #189, 'UNSPECIFIED' ) ;
#89 = PERSON_AND_ORGANIZATION_ROLE ( 'design_owner' ) ;
#90 = ADVANCED_FACE ( 'NONE', ( #98, #235 ), #12, .F. ) ;
#91 = APPROVAL_STATUS ( 'not_yet_approved' ) ;
#92 = ORIENTED_EDGE ( 'NONE', *, *, #219, .F. ) ;
#93 = DATE_AND_TIME ( #181, #206 ) ;
#94 = ORIENTED_EDGE ( 'NONE', *, *, #1, .F. ) ;
#95 = EDGE_LOOP ( 'NONE', ( #42 ) ) ;
#96 = ADVANCED_FACE ( 'NONE', ( #64 ), #123, .F. ) ;
#97 = ORIENTED_EDGE ( 'NONE', *, *, #140, .T. ) ;
#98 = FACE_OUTER_BOUND ( 'NONE', #177, .T. ) ;
#99 = DIRECTION ( 'NONE',  ( -4.256963957985708889E-31, -1.000000000000000000, -1.219242935835426656E-16 ) ) ;
#100 = FACE_OUTER_BOUND ( 'NONE', #60, .T. ) ;
#101 = AXIS2_PLACEMENT_3D ( 'NONE', #77, #11, #183 ) ;
#102 = DIRECTION ( 'NONE',  ( -4.275831445896958607E-31, -1.000000000000000000, -1.224646799147353207E-16 ) ) ;
#103 = PRODUCT_RELATED_PRODUCT_CATEGORY ( 'detail', '', ( #122 ) ) ;
#104 = CARTESIAN_POINT ( 'NONE',  ( -3.398447905693904685E-30, 1.186755190619151968E-31, -9.733541657192261506E-16 ) ) ;
#105 = VERTEX_POINT ( 'NONE', #71 ) ;
#106 = AXIS2_PLACEMENT_3D ( 'NONE', #108, #55, #152 ) ;
#107 = COORDINATED_UNIVERSAL_TIME_OFFSET ( 1, 0, .AHEAD. ) ;
#108 = CARTESIAN_POINT ( 'NONE',  ( 1.326762908760390423E-13, -4.653657836759941941E-15, 38.00000000000000000 ) ) ;
#109 = COORDINATED_UNIVERSAL_TIME_OFFSET ( 1, 0, .AHEAD. ) ;
#110 = CC_DESIGN_APPROVAL ( #158, ( #143 ) ) ;
#111 = PERSON_AND_ORGANIZATION ( #176, #35 ) ;
#112 = DATE_TIME_ROLE ( 'classification_date' ) ;
#113 = ORIENTED_EDGE ( 'NONE', *, *, #140, .F. ) ;
#114 = ORIENTED_EDGE ( 'NONE', *, *, #153, .F. ) ;
#115 = PERSON_AND_ORGANIZATION ( #176, #35 ) ;
#116 = ORIENTED_EDGE ( 'NONE', *, *, #153, .T. ) ;
#117 = CC_DESIGN_PERSON_AND_ORGANIZATION_ASSIGNMENT ( #232, #230, ( #241 ) ) ;
#118 = ORIENTED_EDGE ( 'NONE', *, *, #233, .T. ) ;
#119 = AXIS2_PLACEMENT_3D ( 'NONE', #120, #238, #220 ) ;
#120 = CARTESIAN_POINT ( 'NONE',  ( 3.391628167498958730E-14, -1.184373703562088085E-15, 9.714009150691151007 ) ) ;
#121 = DIRECTION ( 'NONE',  ( 3.491481338843133355E-15, -1.219242935835426903E-16, 1.000000000000000000 ) ) ;
#122 = PRODUCT ( '36234', '36234', '', ( #129 ) ) ;
#123 = PLANE ( 'NONE',  #134 ) ;
#124 = MANIFOLD_SOLID_BREP ( 'Corps-Déplacer/Copier1[2]', #216 ) ;
#125 = CARTESIAN_POINT ( 'NONE',  ( 2.088589592474805950E-14, -7.293460452313504515E-16, 5.981958343122173893 ) ) ;
#126 = DIRECTION ( 'NONE',  ( 3.491481338843133355E-15, -1.219242935835426903E-16, 1.000000000000000000 ) ) ;
#127 = APPROVAL_ROLE ( '' ) ;
#128 = CARTESIAN_POINT ( 'NONE',  ( 1.316288464743861212E-13, 1.499999999999989120, 37.69999999999999574 ) ) ;
#129 = MECHANICAL_CONTEXT ( 'NONE', #54, 'mechanical' ) ;
#130 = CC_DESIGN_PERSON_AND_ORGANIZATION_ASSIGNMENT ( #115, #135, ( #241 ) ) ;
#131 = DATE_AND_TIME ( #209, #222 ) ;
#132 = VERTEX_POINT ( 'NONE', #191 ) ;
#133 = ADVANCED_FACE ( 'NONE', ( #147, #218 ), #9, .T. ) ;
#134 = AXIS2_PLACEMENT_3D ( 'NONE', #237, #28, #63 ) ;
#135 = PERSON_AND_ORGANIZATION_ROLE ( 'creator' ) ;
#136 = EDGE_LOOP ( 'NONE', ( #76 ) ) ;
#137 = APPROVAL_DATE_TIME ( #93, #158 ) ;
#138 = EDGE_LOOP ( 'NONE', ( #6 ) ) ;
#139 = APPROVAL_PERSON_ORGANIZATION ( #111, #88, #243 ) ;
#140 = EDGE_CURVE ( 'NONE', #190, #190, #156, .T. ) ;
#141 = ADVANCED_BREP_SHAPE_REPRESENTATION ( '36234', ( #38, #124, #23 ), #201 ) ;
#142 = CC_DESIGN_PERSON_AND_ORGANIZATION_ASSIGNMENT ( #208, #89, ( #122 ) ) ;
#143 = SECURITY_CLASSIFICATION ( '', '', #196 ) ;
#144 = FACE_OUTER_BOUND ( 'NONE', #39, .T. ) ;
#145 = DIRECTION ( 'NONE',  ( 3.491481338843133355E-15, -1.224646799147353207E-16, 1.000000000000000000 ) ) ;
#146 = PLANE ( 'NONE',  #21 ) ;
#147 = FACE_OUTER_BOUND ( 'NONE', #59, .T. ) ;
#148 = EDGE_CURVE ( 'NONE', #225, #225, #174, .T. ) ;
#149 = PLANE ( 'NONE',  #180 ) ;
#150 = DIRECTION ( 'NONE',  ( 1.000000000000000000, 0.0000000000000000000, 0.0000000000000000000 ) ) ;
#151 = DIRECTION ( 'NONE',  ( 0.0000000000000000000, -1.000000000000000000, 0.0000000000000000000 ) ) ;
#152 = DIRECTION ( 'NONE',  ( 0.0000000000000000000, 1.000000000000000000, 0.0000000000000000000 ) ) ;
#153 = EDGE_CURVE ( 'NONE', #132, #132, #43, .T. ) ;
#154 = DIRECTION ( 'NONE',  ( 0.0000000000000000000, 0.0000000000000000000, 1.000000000000000000 ) ) ;
#155 = CIRCLE ( 'NONE', #73, 0.4499999999999996780 ) ;
#156 = CIRCLE ( 'NONE', #16, 1.499999999999993783 ) ;
#157 = ORIENTED_EDGE ( 'NONE', *, *, #219, .T. ) ;
#158 = APPROVAL ( #91, 'UNSPECIFIED' ) ;
#159 = EDGE_LOOP ( 'NONE', ( #114 ) ) ;
#160 = APPLICATION_CONTEXT ( 'configuration controlled 3d designs of mechanical parts and assemblies' ) ;
#161 = FACE_OUTER_BOUND ( 'NONE', #4, .T. ) ;
#162 = APPROVAL_PERSON_ORGANIZATION ( #227, #158, #58 ) ;
#163 = DIRECTION ( 'NONE',  ( 0.0000000000000000000, 1.000000000000000000, 0.0000000000000000000 ) ) ;
#164 = DIRECTION ( 'NONE',  ( -4.275831445896958607E-31, -1.000000000000000000, -1.224646799147353207E-16 ) ) ;
#165 = FACE_OUTER_BOUND ( 'NONE', #159, .T. ) ;
#166 = CONICAL_SURFACE ( 'NONE', #195, 1.199999999999993738, 0.7853981633974453924 ) ;
#167 = CARTESIAN_POINT ( 'NONE',  ( 6.284666409917640040E-15, -2.602085213965217544E-16, 1.800000000000000044 ) ) ;
#168 = CARTESIAN_POINT ( 'NONE',  ( 8.091990142142894843E-15, -0.5181483474218605556, 2.317638090205028423 ) ) ;
#169 = CC_DESIGN_PERSON_AND_ORGANIZATION_ASSIGNMENT ( #175, #213, ( #143 ) ) ;
#170 = VERTEX_POINT ( 'NONE', #168 ) ;
#171 = AXIS2_PLACEMENT_3D ( 'NONE', #167, #62, #164 ) ;
#172 = DATE_AND_TIME ( #242, #3 ) ;
#173 = CARTESIAN_POINT ( 'NONE',  ( -3.590011283803261572E-30, -0.4499999999999999001, -1.028220097831820292E-15 ) ) ;
#174 = CIRCLE ( 'NONE', #239, 0.4499999999999999001 ) ;
#175 = PERSON_AND_ORGANIZATION ( #176, #35 ) ;
#176 = PERSON ( 'UNSPECIFIED', 'UNSPECIFIED', 'UNSPECIFIED', ('UNSPECIFIED'), ('UNSPECIFIED'), ('UNSPECIFIED') ) ;
#177 = EDGE_LOOP ( 'NONE', ( #116 ) ) ;
#178 = PRODUCT_DEFINITION ( 'UNKNOWN', '', #241, #231 ) ;
#179 = DATE_AND_TIME ( #20, #40 ) ;
#180 = AXIS2_PLACEMENT_3D ( 'NONE', #80, #224, #102 ) ;
#181 = CALENDAR_DATE ( 2021, 1, 11 ) ;
#182 = EDGE_LOOP ( 'NONE', ( #118 ) ) ;
#183 = DIRECTION ( 'NONE',  ( 0.0000000000000000000, -1.000000000000000000, 0.0000000000000000000 ) ) ;
#184 = CARTESIAN_POINT ( 'NONE',  ( 6.284666409917637673E-15, -4.336808689942017736E-16, 1.799999999999999378 ) ) ;
#185 = CYLINDRICAL_SURFACE ( 'NONE', #197, 0.4499999999999997891 ) ;
#186 = CARTESIAN_POINT ( 'NONE',  ( 0.0000000000000000000, 0.0000000000000000000, 0.0000000000000000000 ) ) ;
#187 = CIRCLE ( 'NONE', #106, 1.199999999999993738 ) ;
#188 =( NAMED_UNIT ( * ) SI_UNIT ( $, .STERADIAN. ) SOLID_ANGLE_UNIT ( ) );
#189 = APPROVAL_STATUS ( 'not_yet_approved' ) ;
#190 = VERTEX_POINT ( 'NONE', #128 ) ;
#191 = CARTESIAN_POINT ( 'NONE',  ( 6.284666409917637673E-15, -0.4499999999999999001, 1.799999999999999378 ) ) ;
#192 = CIRCLE ( 'NONE', #84, 1.499999999999991562 ) ;
#193 = ADVANCED_FACE ( 'NONE', ( #144, #44 ), #185, .T. ) ;
#194 = VERTEX_POINT ( 'NONE', #69 ) ;
#195 = AXIS2_PLACEMENT_3D ( 'NONE', #7, #78, #240 ) ;
#196 = SECURITY_CLASSIFICATION_LEVEL ( 'unclassified' ) ;
#197 = AXIS2_PLACEMENT_3D ( 'NONE', #186, #27, #99 ) ;
#198 = CARTESIAN_POINT ( 'NONE',  ( 0.0000000000000000000, 0.0000000000000000000, 0.0000000000000000000 ) ) ;
#199 = DIRECTION ( 'NONE',  ( -3.491481338843133355E-15, 1.224646799147353207E-16, -1.000000000000000000 ) ) ;
#200 = DIRECTION ( 'NONE',  ( 3.491481338843133355E-15, -1.219242935835426903E-16, 1.000000000000000000 ) ) ;
#201 =( GEOMETRIC_REPRESENTATION_CONTEXT ( 3 ) GLOBAL_UNCERTAINTY_ASSIGNED_CONTEXT ( ( #226 ) ) GLOBAL_UNIT_ASSIGNED_CONTEXT ( ( #85, #14, #188 ) ) REPRESENTATION_CONTEXT ( 'NONE', 'WORKASPACE' ) );
#202 = DIRECTION ( 'NONE',  ( -3.491481338843133355E-15, 1.219242935835426903E-16, -1.000000000000000000 ) ) ;
#203 = DIRECTION ( 'NONE',  ( 3.491481338843133355E-15, -1.219242935835426903E-16, 1.000000000000000000 ) ) ;
#204 = CC_DESIGN_DATE_AND_TIME_ASSIGNMENT ( #179, #112, ( #143 ) ) ;
#205 = CARTESIAN_POINT ( 'NONE',  ( 6.284666409917637673E-15, -0.4499999999999999001, 1.799999999999999378 ) ) ;
#206 = LOCAL_TIME ( 10, 45, 30.00000000000000000, #37 ) ;
#207 = PERSON_AND_ORGANIZATION_ROLE ( 'creator' ) ;
#208 = PERSON_AND_ORGANIZATION ( #176, #35 ) ;
#209 = CALENDAR_DATE ( 2021, 1, 11 ) ;
#210 = APPROVAL_DATE_TIME ( #15, #88 ) ;
#211 = ADVANCED_FACE ( 'NONE', ( #236 ), #45, .T. ) ;
#212 = ORIENTED_EDGE ( 'NONE', *, *, #148, .F. ) ;
#213 = PERSON_AND_ORGANIZATION_ROLE ( 'classification_officer' ) ;
#214 = AXIS2_PLACEMENT_3D ( 'NONE', #198, #199, #82 ) ;
#215 = ORIENTED_EDGE ( 'NONE', *, *, #148, .T. ) ;
#216 = CLOSED_SHELL ( 'NONE', ( #211, #193, #41 ) ) ;
#217 = LOCAL_TIME ( 10, 45, 30.00000000000000000, #109 ) ;
#218 = FACE_OUTER_BOUND ( 'NONE', #5, .T. ) ;
#219 = EDGE_CURVE ( 'NONE', #194, #194, #192, .T. ) ;
#220 = DIRECTION ( 'NONE',  ( 0.0000000000000000000, -1.000000000000000000, 0.0000000000000000000 ) ) ;
#221 = DIRECTION ( 'NONE',  ( 0.0000000000000000000, -1.000000000000000000, 0.0000000000000000000 ) ) ;
#222 = LOCAL_TIME ( 10, 45, 30.00000000000000000, #107 ) ;
#223 = DIRECTION ( 'NONE',  ( 0.0000000000000000000, -1.000000000000000000, 0.0000000000000000000 ) ) ;
#224 = DIRECTION ( 'NONE',  ( 3.491481338843133355E-15, -1.224646799147353207E-16, 1.000000000000000000 ) ) ;
#225 = VERTEX_POINT ( 'NONE', #173 ) ;
#226 = UNCERTAINTY_MEASURE_WITH_UNIT (LENGTH_MEASURE( 1.000000000000000082E-05 ), #85, 'distance_accuracy_value', 'NONE');
#227 = PERSON_AND_ORGANIZATION ( #176, #35 ) ;
#228 = CLOSED_SHELL ( 'NONE', ( #133, #25, #96, #83, #90, #33 ) ) ;
#229 = CIRCLE ( 'NONE', #70, 0.5181483474218602225 ) ;
#230 = PERSON_AND_ORGANIZATION_ROLE ( 'design_supplier' ) ;
#231 = DESIGN_CONTEXT ( 'detailed design', #160, 'design' ) ;
#232 = PERSON_AND_ORGANIZATION ( #176, #35 ) ;
#233 = EDGE_CURVE ( 'NONE', #105, #105, #187, .T. ) ;
#234 = EDGE_LOOP ( 'NONE', ( #212 ) ) ;
#235 = FACE_OUTER_BOUND ( 'NONE', #95, .T. ) ;
#236 = FACE_OUTER_BOUND ( 'NONE', #22, .T. ) ;
#237 = CARTESIAN_POINT ( 'NONE',  ( 1.326762908760390423E-13, 8.998558695971030697E-33, 38.00000000000000000 ) ) ;
#238 = DIRECTION ( 'NONE',  ( 3.491481338843133355E-15, -1.219242935835426903E-16, 1.000000000000000000 ) ) ;
#239 = AXIS2_PLACEMENT_3D ( 'NONE', #104, #200, #61 ) ;
#240 = DIRECTION ( 'NONE',  ( 0.0000000000000000000, 1.000000000000000000, 0.0000000000000000000 ) ) ;
#241 = PRODUCT_DEFINITION_FORMATION_WITH_SPECIFIED_SOURCE ( 'ANY', '', #122, .NOT_KNOWN. ) ;
#242 = CALENDAR_DATE ( 2021, 1, 11 ) ;
#243 = APPROVAL_ROLE ( '' ) ;
ENDSEC;
END-ISO-10303-21;
