ISO-10303-21;
HEADER;
FILE_DESCRIPTION (( 'STEP AP203' ),
    '1' );
FILE_NAME ('36233.step',
    '2021-11-01T09:45:29',
    ( '' ),
    ( '' ),
    'SwSTEP 2.0',
    'SolidWorks 2019',
    '' );
FILE_SCHEMA (( 'CONFIG_CONTROL_DESIGN' ));
ENDSEC;

DATA;
#1 = FACE_BOUND ( 'NONE', #211, .T. ) ;
#2 = COORDINATED_UNIVERSAL_TIME_OFFSET ( 1, 0, .AHEAD. ) ;
#3 = VERTEX_POINT ( 'NONE', #53 ) ;
#4 = CARTESIAN_POINT ( 'NONE',  ( 2.083911894449151237E-14, -1.499999999999992228, 5.968560883500623859 ) ) ;
#5 = AXIS2_PLACEMENT_3D ( 'NONE', #134, #151, #78 ) ;
#6 = AXIS2_PLACEMENT_3D ( 'NONE', #215, #45, #64 ) ;
#7 = COORDINATED_UNIVERSAL_TIME_OFFSET ( 1, 0, .AHEAD. ) ;
#8 = EDGE_LOOP ( 'NONE', ( #146 ) ) ;
#9 = ORIENTED_EDGE ( 'NONE', *, *, #10, .F. ) ;
#10 = EDGE_CURVE ( 'NONE', #166, #166, #160, .T. ) ;
#11 = FACE_OUTER_BOUND ( 'NONE', #189, .T. ) ;
#12 = DIRECTION ( 'NONE',  ( 3.491481338843133355E-15, -1.219242935835426903E-16, 1.000000000000000000 ) ) ;
#13 = FACE_OUTER_BOUND ( 'NONE', #168, .T. ) ;
#14 = ORGANIZATION ( 'UNSPECIFIED', 'UNSPECIFIED', '' ) ;
#15 = LOCAL_TIME ( 10, 45, 29.00000000000000000, #7 ) ;
#16 = DIRECTION ( 'NONE',  ( 0.0000000000000000000, 1.000000000000000000, 0.0000000000000000000 ) ) ;
#17 = FACE_BOUND ( 'NONE', #230, .T. ) ;
#18 = VERTEX_POINT ( 'NONE', #4 ) ;
#19 = AXIS2_PLACEMENT_3D ( 'NONE', #114, #178, #115 ) ;
#20 = APPROVAL_ROLE ( '' ) ;
#21 = DIRECTION ( 'NONE',  ( 1.000000000000000000, 0.0000000000000000000, 0.0000000000000000000 ) ) ;
#22 = DATE_AND_TIME ( #104, #123 ) ;
#23 = APPROVAL_DATE_TIME ( #22, #183 ) ;
#24 = SECURITY_CLASSIFICATION_LEVEL ( 'unclassified' ) ;
#25 = ORIENTED_EDGE ( 'NONE', *, *, #158, .T. ) ;
#26 = APPROVAL ( #161, 'UNSPECIFIED' ) ;
#27 = AXIS2_PLACEMENT_3D ( 'NONE', #177, #136, #79 ) ;
#28 = APPROVAL_PERSON_ORGANIZATION ( #110, #63, #107 ) ;
#29 = EDGE_LOOP ( 'NONE', ( #75 ) ) ;
#30 = PLANE ( 'NONE',  #65 ) ;
#31 = CARTESIAN_POINT ( 'NONE',  ( 7.393693874374268172E-15, -2.581915282138505196E-16, 2.117638090205028245 ) ) ;
#32 = FACE_OUTER_BOUND ( 'NONE', #8, .T. ) ;
#33 = PLANE ( 'NONE',  #84 ) ;
#34 = DIRECTION ( 'NONE',  ( -3.491481338843133355E-15, 1.224646799147353207E-16, -1.000000000000000000 ) ) ;
#35 = VERTEX_POINT ( 'NONE', #37 ) ;
#36 = CIRCLE ( 'NONE', #167, 1.499999999999991562 ) ;
#37 = CARTESIAN_POINT ( 'NONE',  ( 1.316288464743861212E-13, 1.499999999999989120, 37.69999999999999574 ) ) ;
#38 = APPLICATION_PROTOCOL_DEFINITION ( 'international standard', 'config_control_design', 1994, #231 ) ;
#39 = AXIS2_PLACEMENT_3D ( 'NONE', #220, #42, #47 ) ;
#40 = LOCAL_TIME ( 10, 45, 29.00000000000000000, #221 ) ;
#41 = ORIENTED_EDGE ( 'NONE', *, *, #97, .T. ) ;
#42 = DIRECTION ( 'NONE',  ( 3.491481338843133355E-15, -1.219242935835426903E-16, 1.000000000000000000 ) ) ;
#43 = CIRCLE ( 'NONE', #6, 0.4000000000000004108 ) ;
#44 = PRODUCT_DEFINITION_SHAPE ( 'NONE', 'NONE',  #133 ) ;
#45 = DIRECTION ( 'NONE',  ( 3.491481338843133355E-15, -1.219242935835426903E-16, 1.000000000000000000 ) ) ;
#46 = CARTESIAN_POINT ( 'NONE',  ( 5.586370142149013368E-15, -2.312964634635748873E-16, 1.599999999999999867 ) ) ;
#47 = DIRECTION ( 'NONE',  ( -4.256963957985706261E-31, -1.000000000000000000, -1.219242935835428382E-16 ) ) ;
#48 = DIRECTION ( 'NONE',  ( -4.256963957985708013E-31, -1.000000000000000000, -1.219242935835426903E-16 ) ) ;
#49 = CALENDAR_DATE ( 2021, 1, 11 ) ;
#50 = PERSON_AND_ORGANIZATION ( #137, #14 ) ;
#51 = COORDINATED_UNIVERSAL_TIME_OFFSET ( 1, 0, .AHEAD. ) ;
#52 = DATE_AND_TIME ( #67, #209 ) ;
#53 = CARTESIAN_POINT ( 'NONE',  ( 1.326762908760390423E-13, 1.199999999999989297, 38.00000000000000000 ) ) ;
#54 = CC_DESIGN_APPROVAL ( #183, ( #98 ) ) ;
#55 = DATE_AND_TIME ( #128, #15 ) ;
#56 = SHAPE_DEFINITION_REPRESENTATION ( #44, #103 ) ;
#57 = EDGE_LOOP ( 'NONE', ( #150 ) ) ;
#58 = DIRECTION ( 'NONE',  ( -4.275831445896958607E-31, -1.000000000000000000, -1.224646799147353207E-16 ) ) ;
#59 = DIRECTION ( 'NONE',  ( 0.0000000000000000000, -1.000000000000000000, 0.0000000000000000000 ) ) ;
#60 = DIRECTION ( 'NONE',  ( -3.491481338843133355E-15, 1.224646799147353207E-16, -1.000000000000000000 ) ) ;
#61 = UNCERTAINTY_MEASURE_WITH_UNIT (LENGTH_MEASURE( 1.000000000000000082E-05 ), #86, 'distance_accuracy_value', 'NONE');
#62 = CYLINDRICAL_SURFACE ( 'NONE', #204, 1.499999999999991562 ) ;
#63 = APPROVAL ( #235, 'UNSPECIFIED' ) ;
#64 = DIRECTION ( 'NONE',  ( 0.0000000000000000000, -1.000000000000000000, 0.0000000000000000000 ) ) ;
#65 = AXIS2_PLACEMENT_3D ( 'NONE', #46, #176, #58 ) ;
#66 = PERSON_AND_ORGANIZATION_ROLE ( 'design_owner' ) ;
#67 = CALENDAR_DATE ( 2021, 1, 11 ) ;
#68 = CC_DESIGN_APPROVAL ( #26, ( #133 ) ) ;
#69 = PERSON_AND_ORGANIZATION ( #137, #14 ) ;
#70 = CC_DESIGN_PERSON_AND_ORGANIZATION_ASSIGNMENT ( #148, #92, ( #98 ) ) ;
#71 = CIRCLE ( 'NONE', #172, 0.4681483474218604557 ) ;
#72 = EDGE_LOOP ( 'NONE', ( #207 ) ) ;
#73 = EDGE_CURVE ( 'NONE', #35, #35, #233, .T. ) ;
#74 = APPROVAL_DATE_TIME ( #210, #63 ) ;
#75 = ORIENTED_EDGE ( 'NONE', *, *, #223, .T. ) ;
#76 = ORIENTED_EDGE ( 'NONE', *, *, #158, .F. ) ;
#77 = CARTESIAN_POINT ( 'NONE',  ( 2.083911894449151237E-14, -7.277125694311790022E-16, 5.968560883500623859 ) ) ;
#78 = DIRECTION ( 'NONE',  ( 0.0000000000000000000, -1.000000000000000000, 0.0000000000000000000 ) ) ;
#79 = DIRECTION ( 'NONE',  ( 4.275831445896958607E-31, 1.000000000000000000, 1.224646799147353207E-16 ) ) ;
#80 =( GEOMETRIC_REPRESENTATION_CONTEXT ( 3 ) GLOBAL_UNCERTAINTY_ASSIGNED_CONTEXT ( ( #61 ) ) GLOBAL_UNIT_ASSIGNED_CONTEXT ( ( #86, #180, #83 ) ) REPRESENTATION_CONTEXT ( 'NONE', 'WORKASPACE' ) );
#81 = DIRECTION ( 'NONE',  ( -4.275831445896958607E-31, -1.000000000000000000, -1.224646799147353207E-16 ) ) ;
#82 = FACE_OUTER_BOUND ( 'NONE', #171, .T. ) ;
#83 =( NAMED_UNIT ( * ) SI_UNIT ( $, .STERADIAN. ) SOLID_ANGLE_UNIT ( ) );
#84 = AXIS2_PLACEMENT_3D ( 'NONE', #195, #95, #81 ) ;
#85 = CARTESIAN_POINT ( 'NONE',  ( 5.586370142149011002E-15, 0.0000000000000000000, 1.599999999999999201 ) ) ;
#86 =( LENGTH_UNIT ( ) NAMED_UNIT ( * ) SI_UNIT ( .MILLI., .METRE. ) );
#87 = APPROVAL_PERSON_ORGANIZATION ( #50, #183, #20 ) ;
#88 = APPROVAL_ROLE ( '' ) ;
#89 = CC_DESIGN_DATE_AND_TIME_ASSIGNMENT ( #52, #222, ( #133 ) ) ;
#90 = CLOSED_SHELL ( 'NONE', ( #112, #200, #130, #93, #238, #116 ) ) ;
#91 = ORIENTED_EDGE ( 'NONE', *, *, #105, .F. ) ;
#92 = PERSON_AND_ORGANIZATION_ROLE ( 'creator' ) ;
#93 = ADVANCED_FACE ( 'NONE', ( #1, #218 ), #219, .T. ) ;
#94 = FACE_OUTER_BOUND ( 'NONE', #191, .T. ) ;
#95 = DIRECTION ( 'NONE',  ( 3.491481338843133355E-15, -1.224646799147353207E-16, 1.000000000000000000 ) ) ;
#96 = CARTESIAN_POINT ( 'NONE',  ( 1.326762908760390423E-13, -4.653657836759941941E-15, 38.00000000000000000 ) ) ;
#97 = EDGE_CURVE ( 'NONE', #181, #181, #113, .T. ) ;
#98 = PRODUCT_DEFINITION_FORMATION_WITH_SPECIFIED_SOURCE ( 'ANY', '', #120, .NOT_KNOWN. ) ;
#99 = DIRECTION ( 'NONE',  ( 3.491481338843133355E-15, -1.219242935835426903E-16, 1.000000000000000000 ) ) ;
#100 = DIRECTION ( 'NONE',  ( -3.491481338843133355E-15, 1.224646799147353207E-16, -1.000000000000000000 ) ) ;
#101 = VERTEX_POINT ( 'NONE', #126 ) ;
#102 = AXIS2_PLACEMENT_3D ( 'NONE', #140, #34, #157 ) ;
#103 = ADVANCED_BREP_SHAPE_REPRESENTATION ( '36233', ( #237, #149, #109 ), #80 ) ;
#104 = CALENDAR_DATE ( 2021, 1, 11 ) ;
#105 = EDGE_CURVE ( 'NONE', #101, #101, #71, .T. ) ;
#106 = PERSON_AND_ORGANIZATION_ROLE ( 'design_supplier' ) ;
#107 = APPROVAL_ROLE ( '' ) ;
#108 = ORIENTED_EDGE ( 'NONE', *, *, #73, .T. ) ;
#109 = AXIS2_PLACEMENT_3D ( 'NONE', #124, #184, #21 ) ;
#110 = PERSON_AND_ORGANIZATION ( #137, #14 ) ;
#111 = ORIENTED_EDGE ( 'NONE', *, *, #208, .F. ) ;
#112 = ADVANCED_FACE ( 'NONE', ( #152, #13 ), #62, .T. ) ;
#113 = CIRCLE ( 'NONE', #39, 0.3999999999999999667 ) ;
#114 = CARTESIAN_POINT ( 'NONE',  ( 5.586370142149013368E-15, -2.312964634635748873E-16, 1.599999999999999867 ) ) ;
#115 = DIRECTION ( 'NONE',  ( -4.275831445896958607E-31, -1.000000000000000000, -1.224646799147353207E-16 ) ) ;
#116 = ADVANCED_FACE ( 'NONE', ( #216 ), #30, .F. ) ;
#117 = PLANE ( 'NONE',  #27 ) ;
#118 = DIRECTION ( 'NONE',  ( 3.491481338843133355E-15, -1.219242935835426903E-16, 1.000000000000000000 ) ) ;
#119 = LOCAL_TIME ( 10, 45, 29.00000000000000000, #190 ) ;
#120 = PRODUCT ( '36233', '36233', '', ( #224 ) ) ;
#121 = DIRECTION ( 'NONE',  ( -3.491481338843133355E-15, 1.224646799147353207E-16, -1.000000000000000000 ) ) ;
#122 = APPROVAL_DATE_TIME ( #143, #26 ) ;
#123 = LOCAL_TIME ( 10, 45, 29.00000000000000000, #51 ) ;
#124 = CARTESIAN_POINT ( 'NONE',  ( 0.0000000000000000000, 0.0000000000000000000, 0.0000000000000000000 ) ) ;
#125 = APPROVAL_STATUS ( 'not_yet_approved' ) ;
#126 = CARTESIAN_POINT ( 'NONE',  ( 7.393693874374268172E-15, -0.4681483474218607332, 2.117638090205028245 ) ) ;
#127 = CIRCLE ( 'NONE', #131, 1.199999999999993738 ) ;
#128 = CALENDAR_DATE ( 2021, 1, 11 ) ;
#129 = EDGE_LOOP ( 'NONE', ( #76 ) ) ;
#130 = ADVANCED_FACE ( 'NONE', ( #240 ), #117, .F. ) ;
#131 = AXIS2_PLACEMENT_3D ( 'NONE', #96, #121, #16 ) ;
#132 = DATE_TIME_ROLE ( 'classification_date' ) ;
#133 = PRODUCT_DEFINITION ( 'UNKNOWN', '', #98, #217 ) ;
#134 = CARTESIAN_POINT ( 'NONE',  ( 5.586370142149011002E-15, -1.950788697336681960E-16, 1.599999999999999201 ) ) ;
#135 = DIRECTION ( 'NONE',  ( -3.491481338843133355E-15, 1.219242935835426903E-16, -1.000000000000000000 ) ) ;
#136 = DIRECTION ( 'NONE',  ( -3.491481338843133355E-15, 1.224646799147353207E-16, -1.000000000000000000 ) ) ;
#137 = PERSON ( 'UNSPECIFIED', 'UNSPECIFIED', 'UNSPECIFIED', ('UNSPECIFIED'), ('UNSPECIFIED'), ('UNSPECIFIED') ) ;
#138 = DIRECTION ( 'NONE',  ( 0.0000000000000000000, -1.000000000000000000, 0.0000000000000000000 ) ) ;
#139 = FACE_OUTER_BOUND ( 'NONE', #57, .T. ) ;
#140 = CARTESIAN_POINT ( 'NONE',  ( 1.326762908760390423E-13, -4.653657836759941941E-15, 38.00000000000000000 ) ) ;
#141 = CLOSED_SHELL ( 'NONE', ( #179, #175, #163 ) ) ;
#142 = PERSON_AND_ORGANIZATION ( #137, #14 ) ;
#143 = DATE_AND_TIME ( #49, #40 ) ;
#144 = APPROVAL_PERSON_ORGANIZATION ( #142, #26, #88 ) ;
#145 = CC_DESIGN_PERSON_AND_ORGANIZATION_ASSIGNMENT ( #69, #225, ( #133 ) ) ;
#146 = ORIENTED_EDGE ( 'NONE', *, *, #97, .F. ) ;
#147 = PRODUCT_RELATED_PRODUCT_CATEGORY ( 'detail', '', ( #120 ) ) ;
#148 = PERSON_AND_ORGANIZATION ( #137, #14 ) ;
#149 = MANIFOLD_SOLID_BREP ( 'Corps-Déplacer/Copier1[2]', #141 ) ;
#150 = ORIENTED_EDGE ( 'NONE', *, *, #208, .T. ) ;
#151 = DIRECTION ( 'NONE',  ( 3.491481338843133355E-15, -1.219242935835426903E-16, 1.000000000000000000 ) ) ;
#152 = FACE_OUTER_BOUND ( 'NONE', #212, .T. ) ;
#153 = CC_DESIGN_PERSON_AND_ORGANIZATION_ASSIGNMENT ( #206, #228, ( #234 ) ) ;
#154 = CARTESIAN_POINT ( 'NONE',  ( 0.0000000000000000000, 0.0000000000000000000, 0.0000000000000000000 ) ) ;
#155 = CC_DESIGN_APPROVAL ( #63, ( #234 ) ) ;
#156 = CYLINDRICAL_SURFACE ( 'NONE', #193, 0.4000000000000001887 ) ;
#157 = DIRECTION ( 'NONE',  ( 0.0000000000000000000, 1.000000000000000000, 0.0000000000000000000 ) ) ;
#158 = EDGE_CURVE ( 'NONE', #3, #3, #127, .T. ) ;
#159 = CARTESIAN_POINT ( 'NONE',  ( -3.547441644223404720E-30, -0.3999999999999999667, -1.016027668473466280E-15 ) ) ;
#160 = CIRCLE ( 'NONE', #5, 0.4000000000000004108 ) ;
#161 = APPROVAL_STATUS ( 'not_yet_approved' ) ;
#162 = DIRECTION ( 'NONE',  ( -4.317316899811298644E-31, -1.000000000000000000, -1.219242935835426903E-16 ) ) ;
#163 = ADVANCED_FACE ( 'NONE', ( #32 ), #33, .F. ) ;
#164 = APPLICATION_PROTOCOL_DEFINITION ( 'international standard', 'config_control_design', 1994, #173 ) ;
#165 = AXIS2_PLACEMENT_3D ( 'NONE', #239, #118, #59 ) ;
#166 = VERTEX_POINT ( 'NONE', #227 ) ;
#167 = AXIS2_PLACEMENT_3D ( 'NONE', #77, #135, #174 ) ;
#168 = EDGE_LOOP ( 'NONE', ( #236 ) ) ;
#169 = ORIENTED_EDGE ( 'NONE', *, *, #73, .F. ) ;
#170 = CC_DESIGN_DATE_AND_TIME_ASSIGNMENT ( #55, #132, ( #234 ) ) ;
#171 = EDGE_LOOP ( 'NONE', ( #41 ) ) ;
#172 = AXIS2_PLACEMENT_3D ( 'NONE', #31, #12, #138 ) ;
#173 = APPLICATION_CONTEXT ( 'configuration controlled 3d designs of mechanical parts and assemblies' ) ;
#174 = DIRECTION ( 'NONE',  ( 0.0000000000000000000, -1.000000000000000000, 0.0000000000000000000 ) ) ;
#175 = ADVANCED_FACE ( 'NONE', ( #82, #11 ), #156, .T. ) ;
#176 = DIRECTION ( 'NONE',  ( 3.491481338843133355E-15, -1.224646799147353207E-16, 1.000000000000000000 ) ) ;
#177 = CARTESIAN_POINT ( 'NONE',  ( 1.326762908760390423E-13, 8.998558695971030697E-33, 38.00000000000000000 ) ) ;
#178 = DIRECTION ( 'NONE',  ( 3.491481338843133355E-15, -1.224646799147353207E-16, 1.000000000000000000 ) ) ;
#179 = ADVANCED_FACE ( 'NONE', ( #139 ), #198, .T. ) ;
#180 =( NAMED_UNIT ( * ) PLANE_ANGLE_UNIT ( ) SI_UNIT ( $, .RADIAN. ) );
#181 = VERTEX_POINT ( 'NONE', #159 ) ;
#182 = AXIS2_PLACEMENT_3D ( 'NONE', #242, #60, #196 ) ;
#183 = APPROVAL ( #125, 'UNSPECIFIED' ) ;
#184 = DIRECTION ( 'NONE',  ( 0.0000000000000000000, 0.0000000000000000000, 1.000000000000000000 ) ) ;
#185 = PERSON_AND_ORGANIZATION ( #137, #14 ) ;
#186 = CARTESIAN_POINT ( 'NONE',  ( 5.586370142149011002E-15, -0.4000000000000006328, 1.599999999999999201 ) ) ;
#187 = PERSON_AND_ORGANIZATION ( #137, #14 ) ;
#188 = ORIENTED_EDGE ( 'NONE', *, *, #105, .T. ) ;
#189 = EDGE_LOOP ( 'NONE', ( #111 ) ) ;
#190 = COORDINATED_UNIVERSAL_TIME_OFFSET ( 1, 0, .AHEAD. ) ;
#191 = EDGE_LOOP ( 'NONE', ( #169 ) ) ;
#192 = EDGE_LOOP ( 'NONE', ( #91 ) ) ;
#193 = AXIS2_PLACEMENT_3D ( 'NONE', #243, #99, #48 ) ;
#194 = FACE_OUTER_BOUND ( 'NONE', #192, .T. ) ;
#195 = CARTESIAN_POINT ( 'NONE',  ( -1.282754905350004587E-30, 4.499298539707956128E-32, -3.673956068672651857E-16 ) ) ;
#196 = DIRECTION ( 'NONE',  ( 0.0000000000000000000, 1.000000000000000000, 0.0000000000000000000 ) ) ;
#197 = DIRECTION ( 'NONE',  ( 4.275831445896958607E-31, 1.000000000000000000, 1.224646799147353207E-16 ) ) ;
#198 = PLANE ( 'NONE',  #19 ) ;
#199 = VERTEX_POINT ( 'NONE', #186 ) ;
#200 = ADVANCED_FACE ( 'NONE', ( #94, #17 ), #214, .T. ) ;
#201 = TOROIDAL_SURFACE ( 'NONE', #241, 2.400000000000000355, 2.000000000000000000 ) ;
#202 = CC_DESIGN_SECURITY_CLASSIFICATION ( #234, ( #98 ) ) ;
#203 = DIRECTION ( 'NONE',  ( 3.491481338843133355E-15, -1.219242935835426903E-16, 1.000000000000000000 ) ) ;
#204 = AXIS2_PLACEMENT_3D ( 'NONE', #154, #100, #197 ) ;
#205 = CALENDAR_DATE ( 2021, 1, 11 ) ;
#206 = PERSON_AND_ORGANIZATION ( #137, #14 ) ;
#207 = ORIENTED_EDGE ( 'NONE', *, *, #10, .T. ) ;
#208 = EDGE_CURVE ( 'NONE', #199, #199, #43, .T. ) ;
#209 = LOCAL_TIME ( 10, 45, 29.00000000000000000, #2 ) ;
#210 = DATE_AND_TIME ( #205, #119 ) ;
#211 = EDGE_LOOP ( 'NONE', ( #188 ) ) ;
#212 = EDGE_LOOP ( 'NONE', ( #108 ) ) ;
#213 = FACE_OUTER_BOUND ( 'NONE', #72, .T. ) ;
#214 = CONICAL_SURFACE ( 'NONE', #102, 1.199999999999993738, 0.7853981633974453924 ) ;
#215 = CARTESIAN_POINT ( 'NONE',  ( 5.586370142149011002E-15, -1.950788697336681960E-16, 1.599999999999999201 ) ) ;
#216 = FACE_OUTER_BOUND ( 'NONE', #232, .T. ) ;
#217 = DESIGN_CONTEXT ( 'detailed design', #231, 'design' ) ;
#218 = FACE_OUTER_BOUND ( 'NONE', #29, .T. ) ;
#219 = CONICAL_SURFACE ( 'NONE', #165, 2.499999999999992895, 0.2617993877991429130 ) ;
#220 = CARTESIAN_POINT ( 'NONE',  ( -3.377163085903975909E-30, 1.179322423936229069E-31, -9.672579510400490456E-16 ) ) ;
#221 = COORDINATED_UNIVERSAL_TIME_OFFSET ( 1, 0, .AHEAD. ) ;
#222 = DATE_TIME_ROLE ( 'creation_date' ) ;
#223 = EDGE_CURVE ( 'NONE', #18, #18, #36, .T. ) ;
#224 = MECHANICAL_CONTEXT ( 'NONE', #173, 'mechanical' ) ;
#225 = PERSON_AND_ORGANIZATION_ROLE ( 'creator' ) ;
#226 = CC_DESIGN_PERSON_AND_ORGANIZATION_ASSIGNMENT ( #185, #66, ( #120 ) ) ;
#227 = CARTESIAN_POINT ( 'NONE',  ( 5.586370142149011002E-15, -0.4000000000000006328, 1.599999999999999201 ) ) ;
#228 = PERSON_AND_ORGANIZATION_ROLE ( 'classification_officer' ) ;
#229 = CC_DESIGN_PERSON_AND_ORGANIZATION_ASSIGNMENT ( #187, #106, ( #98 ) ) ;
#230 = EDGE_LOOP ( 'NONE', ( #25 ) ) ;
#231 = APPLICATION_CONTEXT ( 'configuration controlled 3d designs of mechanical parts and assemblies' ) ;
#232 = EDGE_LOOP ( 'NONE', ( #9 ) ) ;
#233 = CIRCLE ( 'NONE', #182, 1.499999999999993783 ) ;
#234 = SECURITY_CLASSIFICATION ( '', '', #24 ) ;
#235 = APPROVAL_STATUS ( 'not_yet_approved' ) ;
#236 = ORIENTED_EDGE ( 'NONE', *, *, #223, .F. ) ;
#237 = MANIFOLD_SOLID_BREP ( 'Corps-Déplacer/Copier1[1]', #90 ) ;
#238 = ADVANCED_FACE ( 'NONE', ( #213, #194 ), #201, .F. ) ;
#239 = CARTESIAN_POINT ( 'NONE',  ( 3.386950469473304333E-14, -1.182740227761916735E-15, 9.700611691069601861 ) ) ;
#240 = FACE_OUTER_BOUND ( 'NONE', #129, .T. ) ;
#241 = AXIS2_PLACEMENT_3D ( 'NONE', #85, #203, #162 ) ;
#242 = CARTESIAN_POINT ( 'NONE',  ( 1.316288464743861212E-13, -4.616918432785521081E-15, 37.69999999999999574 ) ) ;
#243 = CARTESIAN_POINT ( 'NONE',  ( 0.0000000000000000000, 0.0000000000000000000, 0.0000000000000000000 ) ) ;
ENDSEC;
END-ISO-10303-21;
