ISO-10303-21;
HEADER;
FILE_DESCRIPTION (( 'STEP AP203' ),
    '1' );
FILE_NAME ('36232.step',
    '2021-11-01T09:45:29',
    ( '' ),
    ( '' ),
    'SwSTEP 2.0',
    'SolidWorks 2019',
    '' );
FILE_SCHEMA (( 'CONFIG_CONTROL_DESIGN' ));
ENDSEC;

DATA;
#1 = DIRECTION ( 'NONE',  ( -3.491481338843133355E-15, 1.224646799147353207E-16, -1.000000000000000000 ) ) ;
#2 = MANIFOLD_SOLID_BREP ( 'Corps-Déplacer/Copier1[1]', #73 ) ;
#3 = DIRECTION ( 'NONE',  ( 0.0000000000000000000, 1.000000000000000000, 0.0000000000000000000 ) ) ;
#4 = CC_DESIGN_PERSON_AND_ORGANIZATION_ASSIGNMENT ( #184, #110, ( #172 ) ) ;
#5 = CIRCLE ( 'NONE', #223, 1.499999999999991562 ) ;
#6 = DIRECTION ( 'NONE',  ( 3.491481338843133355E-15, -1.219242935835426903E-16, 1.000000000000000000 ) ) ;
#7 = FACE_OUTER_BOUND ( 'NONE', #126, .T. ) ;
#8 = VERTEX_POINT ( 'NONE', #45 ) ;
#9 = AXIS2_PLACEMENT_3D ( 'NONE', #55, #117, #203 ) ;
#10 =( LENGTH_UNIT ( ) NAMED_UNIT ( * ) SI_UNIT ( .MILLI., .METRE. ) );
#11 = CC_DESIGN_APPROVAL ( #198, ( #23 ) ) ;
#12 = PERSON_AND_ORGANIZATION ( #152, #118 ) ;
#13 = ORIENTED_EDGE ( 'NONE', *, *, #56, .T. ) ;
#14 = EDGE_CURVE ( 'NONE', #32, #32, #193, .T. ) ;
#15 = PERSON_AND_ORGANIZATION ( #152, #118 ) ;
#16 = APPROVAL_ROLE ( '' ) ;
#17 = ORIENTED_EDGE ( 'NONE', *, *, #56, .F. ) ;
#18 = DIRECTION ( 'NONE',  ( 0.0000000000000000000, 1.000000000000000000, 0.0000000000000000000 ) ) ;
#19 = CIRCLE ( 'NONE', #127, 1.199999999999993738 ) ;
#20 = CARTESIAN_POINT ( 'NONE',  ( 4.888073874380385909E-15, -2.023844055306280203E-16, 1.399999999999999689 ) ) ;
#21 = PRODUCT ( '36232', '36232', '', ( #83 ) ) ;
#22 = CARTESIAN_POINT ( 'NONE',  ( 3.382272771447650567E-14, -1.181106751961745384E-15, 9.687214231448052715 ) ) ;
#23 = PRODUCT_DEFINITION ( 'UNKNOWN', '', #172, #119 ) ;
#24 = FACE_OUTER_BOUND ( 'NONE', #50, .T. ) ;
#25 = DIRECTION ( 'NONE',  ( 3.491481338843133355E-15, -1.219242935835426903E-16, 1.000000000000000000 ) ) ;
#26 =( NAMED_UNIT ( * ) PLANE_ANGLE_UNIT ( ) SI_UNIT ( $, .RADIAN. ) );
#27 = EDGE_CURVE ( 'NONE', #215, #215, #41, .T. ) ;
#28 = VERTEX_POINT ( 'NONE', #65 ) ;
#29 = COORDINATED_UNIVERSAL_TIME_OFFSET ( 1, 0, .AHEAD. ) ;
#30 = CC_DESIGN_SECURITY_CLASSIFICATION ( #197, ( #172 ) ) ;
#31 = CC_DESIGN_PERSON_AND_ORGANIZATION_ASSIGNMENT ( #84, #82, ( #23 ) ) ;
#32 = VERTEX_POINT ( 'NONE', #235 ) ;
#33 = COORDINATED_UNIVERSAL_TIME_OFFSET ( 1, 0, .AHEAD. ) ;
#34 = ORIENTED_EDGE ( 'NONE', *, *, #148, .T. ) ;
#35 = EDGE_LOOP ( 'NONE', ( #13 ) ) ;
#36 = DIRECTION ( 'NONE',  ( 4.275831445896958607E-31, 1.000000000000000000, 1.224646799147353207E-16 ) ) ;
#37 = CARTESIAN_POINT ( 'NONE',  ( -1.282754905350004587E-30, 4.499298539707956128E-32, -3.673956068672651857E-16 ) ) ;
#38 = DIRECTION ( 'NONE',  ( 3.491481338843133355E-15, -1.224646799147353207E-16, 1.000000000000000000 ) ) ;
#39 = CARTESIAN_POINT ( 'NONE',  ( 4.888073874380385909E-15, -2.023844055306280203E-16, 1.399999999999999689 ) ) ;
#40 = DIRECTION ( 'NONE',  ( -3.491481338843133355E-15, 1.224646799147353207E-16, -1.000000000000000000 ) ) ;
#41 = CIRCLE ( 'NONE', #103, 0.3500000000000001998 ) ;
#42 = COORDINATED_UNIVERSAL_TIME_OFFSET ( 1, 0, .AHEAD. ) ;
#43 = DIRECTION ( 'NONE',  ( -3.491481338843133355E-15, 1.219242935835426903E-16, -1.000000000000000000 ) ) ;
#44 = APPROVAL_ROLE ( '' ) ;
#45 = CARTESIAN_POINT ( 'NONE',  ( 2.079234196423496840E-14, -1.499999999999992228, 5.955163423879073825 ) ) ;
#46 = ADVANCED_FACE ( 'NONE', ( #24, #89 ), #136, .T. ) ;
#47 = LOCAL_TIME ( 10, 45, 29.00000000000000000, #63 ) ;
#48 = CARTESIAN_POINT ( 'NONE',  ( 2.079234196423496840E-14, -7.260790936310074543E-16, 5.955163423879073825 ) ) ;
#49 = DATE_AND_TIME ( #104, #132 ) ;
#50 = EDGE_LOOP ( 'NONE', ( #165 ) ) ;
#51 = AXIS2_PLACEMENT_3D ( 'NONE', #228, #154, #76 ) ;
#52 = APPROVAL_DATE_TIME ( #161, #233 ) ;
#53 = EDGE_LOOP ( 'NONE', ( #200 ) ) ;
#54 = CIRCLE ( 'NONE', #162, 0.3500000000000000333 ) ;
#55 = CARTESIAN_POINT ( 'NONE',  ( 6.695397606605640712E-15, -2.338066694971420013E-16, 1.917638090205028067 ) ) ;
#56 = EDGE_CURVE ( 'NONE', #234, #234, #74, .T. ) ;
#57 = FACE_BOUND ( 'NONE', #35, .T. ) ;
#58 = CARTESIAN_POINT ( 'NONE',  ( 4.888073874380383542E-15, 0.0000000000000000000, 1.399999999999999023 ) ) ;
#59 = CYLINDRICAL_SURFACE ( 'NONE', #94, 0.3500000000000001443 ) ;
#60 = DIRECTION ( 'NONE',  ( 3.491481338843133355E-15, -1.224646799147353207E-16, 1.000000000000000000 ) ) ;
#61 = APPROVAL_PERSON_ORGANIZATION ( #137, #233, #44 ) ;
#62 = DATE_TIME_ROLE ( 'creation_date' ) ;
#63 = COORDINATED_UNIVERSAL_TIME_OFFSET ( 1, 0, .AHEAD. ) ;
#64 = ADVANCED_FACE ( 'NONE', ( #173 ), #207, .F. ) ;
#65 = CARTESIAN_POINT ( 'NONE',  ( 1.326762908760390423E-13, 1.199999999999989297, 38.00000000000000000 ) ) ;
#66 = APPROVAL_STATUS ( 'not_yet_approved' ) ;
#67 = CC_DESIGN_PERSON_AND_ORGANIZATION_ASSIGNMENT ( #138, #236, ( #21 ) ) ;
#68 = PERSON_AND_ORGANIZATION_ROLE ( 'classification_officer' ) ;
#69 = CLOSED_SHELL ( 'NONE', ( #128, #192, #102 ) ) ;
#70 = EDGE_CURVE ( 'NONE', #28, #28, #19, .T. ) ;
#71 = PERSON_AND_ORGANIZATION_ROLE ( 'creator' ) ;
#72 = ORIENTED_EDGE ( 'NONE', *, *, #216, .F. ) ;
#73 = CLOSED_SHELL ( 'NONE', ( #116, #46, #64, #121, #81, #106 ) ) ;
#74 = CIRCLE ( 'NONE', #9, 0.4181483474218603003 ) ;
#75 = DIRECTION ( 'NONE',  ( -4.275831445896958607E-31, -1.000000000000000000, -1.224646799147353207E-16 ) ) ;
#76 = DIRECTION ( 'NONE',  ( 0.0000000000000000000, -1.000000000000000000, 0.0000000000000000000 ) ) ;
#77 = DIRECTION ( 'NONE',  ( 3.491481338843133355E-15, -1.224646799147353207E-16, 1.000000000000000000 ) ) ;
#78 = FACE_OUTER_BOUND ( 'NONE', #199, .T. ) ;
#79 = DIRECTION ( 'NONE',  ( 0.0000000000000000000, -1.000000000000000000, 0.0000000000000000000 ) ) ;
#80 = CALENDAR_DATE ( 2021, 1, 11 ) ;
#81 = ADVANCED_FACE ( 'NONE', ( #7, #186 ), #156, .F. ) ;
#82 = PERSON_AND_ORGANIZATION_ROLE ( 'creator' ) ;
#83 = MECHANICAL_CONTEXT ( 'NONE', #237, 'mechanical' ) ;
#84 = PERSON_AND_ORGANIZATION ( #152, #118 ) ;
#85 = COORDINATED_UNIVERSAL_TIME_OFFSET ( 1, 0, .AHEAD. ) ;
#86 = ORIENTED_EDGE ( 'NONE', *, *, #97, .T. ) ;
#87 = ORIENTED_EDGE ( 'NONE', *, *, #97, .F. ) ;
#88 = CALENDAR_DATE ( 2021, 1, 11 ) ;
#89 = FACE_BOUND ( 'NONE', #202, .T. ) ;
#90 = AXIS2_PLACEMENT_3D ( 'NONE', #20, #77, #171 ) ;
#91 = CARTESIAN_POINT ( 'NONE',  ( 0.0000000000000000000, 0.0000000000000000000, 0.0000000000000000000 ) ) ;
#92 = DIRECTION ( 'NONE',  ( 0.0000000000000000000, -1.000000000000000000, 0.0000000000000000000 ) ) ;
#93 = FACE_OUTER_BOUND ( 'NONE', #181, .T. ) ;
#94 = AXIS2_PLACEMENT_3D ( 'NONE', #95, #111, #101 ) ;
#95 = CARTESIAN_POINT ( 'NONE',  ( 0.0000000000000000000, 0.0000000000000000000, 0.0000000000000000000 ) ) ;
#96 = CARTESIAN_POINT ( 'NONE',  ( -3.504872004643547167E-30, -0.3500000000000000333, -1.003835239115111675E-15 ) ) ;
#97 = EDGE_CURVE ( 'NONE', #160, #160, #205, .T. ) ;
#98 = APPLICATION_CONTEXT ( 'configuration controlled 3d designs of mechanical parts and assemblies' ) ;
#99 = AXIS2_PLACEMENT_3D ( 'NONE', #91, #208, #150 ) ;
#100 = VERTEX_POINT ( 'NONE', #96 ) ;
#101 = DIRECTION ( 'NONE',  ( -4.256963957985708889E-31, -1.000000000000000000, -1.219242935835426903E-16 ) ) ;
#102 = ADVANCED_FACE ( 'NONE', ( #93 ), #167, .F. ) ;
#103 = AXIS2_PLACEMENT_3D ( 'NONE', #130, #151, #79 ) ;
#104 = CALENDAR_DATE ( 2021, 1, 11 ) ;
#105 = EDGE_LOOP ( 'NONE', ( #72 ) ) ;
#106 = ADVANCED_FACE ( 'NONE', ( #149 ), #168, .F. ) ;
#107 = EDGE_LOOP ( 'NONE', ( #222 ) ) ;
#108 = AXIS2_PLACEMENT_3D ( 'NONE', #206, #1, #36 ) ;
#109 = APPROVAL_PERSON_ORGANIZATION ( #12, #177, #16 ) ;
#110 = PERSON_AND_ORGANIZATION_ROLE ( 'design_supplier' ) ;
#111 = DIRECTION ( 'NONE',  ( 3.491481338843133355E-15, -1.219242935835426903E-16, 1.000000000000000000 ) ) ;
#112 = CARTESIAN_POINT ( 'NONE',  ( 1.326762908760390423E-13, -4.653657836759941941E-15, 38.00000000000000000 ) ) ;
#113 = AXIS2_PLACEMENT_3D ( 'NONE', #145, #134, #129 ) ;
#114 = FACE_OUTER_BOUND ( 'NONE', #105, .T. ) ;
#115 = FACE_OUTER_BOUND ( 'NONE', #217, .T. ) ;
#116 = ADVANCED_FACE ( 'NONE', ( #231, #114 ), #190, .T. ) ;
#117 = DIRECTION ( 'NONE',  ( 3.491481338843133355E-15, -1.219242935835426903E-16, 1.000000000000000000 ) ) ;
#118 = ORGANIZATION ( 'UNSPECIFIED', 'UNSPECIFIED', '' ) ;
#119 = DESIGN_CONTEXT ( 'detailed design', #98, 'design' ) ;
#120 = APPROVAL_DATE_TIME ( #213, #198 ) ;
#121 = ADVANCED_FACE ( 'NONE', ( #57, #188 ), #139, .T. ) ;
#122 = CARTESIAN_POINT ( 'NONE',  ( 0.0000000000000000000, 0.0000000000000000000, 0.0000000000000000000 ) ) ;
#123 = CARTESIAN_POINT ( 'NONE',  ( 4.888073874380383542E-15, -0.3500000000000003664, 1.399999999999999023 ) ) ;
#124 =( NAMED_UNIT ( * ) SI_UNIT ( $, .STERADIAN. ) SOLID_ANGLE_UNIT ( ) );
#125 = SHAPE_DEFINITION_REPRESENTATION ( #204, #163 ) ;
#126 = EDGE_LOOP ( 'NONE', ( #86 ) ) ;
#127 = AXIS2_PLACEMENT_3D ( 'NONE', #112, #224, #3 ) ;
#128 = ADVANCED_FACE ( 'NONE', ( #115 ), #133, .T. ) ;
#129 = DIRECTION ( 'NONE',  ( 0.0000000000000000000, 1.000000000000000000, 0.0000000000000000000 ) ) ;
#130 = CARTESIAN_POINT ( 'NONE',  ( 4.888073874380383542E-15, -1.706940110169596530E-16, 1.399999999999999023 ) ) ;
#131 = AXIS2_PLACEMENT_3D ( 'NONE', #39, #60, #189 ) ;
#132 = LOCAL_TIME ( 10, 45, 29.00000000000000000, #85 ) ;
#133 = PLANE ( 'NONE',  #131 ) ;
#134 = DIRECTION ( 'NONE',  ( -3.491481338843133355E-15, 1.224646799147353207E-16, -1.000000000000000000 ) ) ;
#135 = CARTESIAN_POINT ( 'NONE',  ( -3.355878266114047833E-30, 1.171889657253305952E-31, -9.611617363608717435E-16 ) ) ;
#136 = CONICAL_SURFACE ( 'NONE', #201, 1.199999999999993738, 0.7853981633974453924 ) ;
#137 = PERSON_AND_ORGANIZATION ( #152, #118 ) ;
#138 = PERSON_AND_ORGANIZATION ( #152, #118 ) ;
#139 = CONICAL_SURFACE ( 'NONE', #209, 2.499999999999992895, 0.2617993877991428575 ) ;
#140 = DIRECTION ( 'NONE',  ( 0.0000000000000000000, -1.000000000000000000, 0.0000000000000000000 ) ) ;
#141 = SECURITY_CLASSIFICATION_LEVEL ( 'unclassified' ) ;
#142 = ORIENTED_EDGE ( 'NONE', *, *, #14, .T. ) ;
#143 = APPROVAL_STATUS ( 'not_yet_approved' ) ;
#144 = ORIENTED_EDGE ( 'NONE', *, *, #148, .F. ) ;
#145 = CARTESIAN_POINT ( 'NONE',  ( 1.316288464743861212E-13, -4.616918432785521081E-15, 37.69999999999999574 ) ) ;
#146 = DATE_AND_TIME ( #88, #187 ) ;
#147 = EDGE_LOOP ( 'NONE', ( #17 ) ) ;
#148 = EDGE_CURVE ( 'NONE', #100, #100, #54, .T. ) ;
#149 = FACE_OUTER_BOUND ( 'NONE', #183, .T. ) ;
#150 = DIRECTION ( 'NONE',  ( 4.275831445896958607E-31, 1.000000000000000000, 1.224646799147353207E-16 ) ) ;
#151 = DIRECTION ( 'NONE',  ( 3.491481338843133355E-15, -1.219242935835426903E-16, 1.000000000000000000 ) ) ;
#152 = PERSON ( 'UNSPECIFIED', 'UNSPECIFIED', 'UNSPECIFIED', ('UNSPECIFIED'), ('UNSPECIFIED'), ('UNSPECIFIED') ) ;
#153 = FACE_OUTER_BOUND ( 'NONE', #241, .T. ) ;
#154 = DIRECTION ( 'NONE',  ( 3.491481338843133355E-15, -1.219242935835426903E-16, 1.000000000000000000 ) ) ;
#155 = DATE_AND_TIME ( #80, #166 ) ;
#156 = TOROIDAL_SURFACE ( 'NONE', #191, 2.350000000000000089, 2.000000000000000000 ) ;
#157 = DIRECTION ( 'NONE',  ( 1.000000000000000000, 0.0000000000000000000, 0.0000000000000000000 ) ) ;
#158 = APPLICATION_PROTOCOL_DEFINITION ( 'international standard', 'config_control_design', 1994, #98 ) ;
#159 = AXIS2_PLACEMENT_3D ( 'NONE', #37, #38, #75 ) ;
#160 = VERTEX_POINT ( 'NONE', #123 ) ;
#161 = DATE_AND_TIME ( #176, #182 ) ;
#162 = AXIS2_PLACEMENT_3D ( 'NONE', #135, #6, #230 ) ;
#163 = ADVANCED_BREP_SHAPE_REPRESENTATION ( '36232', ( #2, #243, #180 ), #238 ) ;
#164 = ORIENTED_EDGE ( 'NONE', *, *, #70, .T. ) ;
#165 = ORIENTED_EDGE ( 'NONE', *, *, #14, .F. ) ;
#166 = LOCAL_TIME ( 10, 45, 29.00000000000000000, #42 ) ;
#167 = PLANE ( 'NONE',  #159 ) ;
#168 = PLANE ( 'NONE',  #90 ) ;
#169 = CC_DESIGN_PERSON_AND_ORGANIZATION_ASSIGNMENT ( #15, #68, ( #197 ) ) ;
#170 = DIRECTION ( 'NONE',  ( 3.491481338843133355E-15, -1.219242935835426903E-16, 1.000000000000000000 ) ) ;
#171 = DIRECTION ( 'NONE',  ( -4.275831445896958607E-31, -1.000000000000000000, -1.224646799147353207E-16 ) ) ;
#172 = PRODUCT_DEFINITION_FORMATION_WITH_SPECIFIED_SOURCE ( 'ANY', '', #21, .NOT_KNOWN. ) ;
#173 = FACE_OUTER_BOUND ( 'NONE', #107, .T. ) ;
#174 = UNCERTAINTY_MEASURE_WITH_UNIT (LENGTH_MEASURE( 1.000000000000000082E-05 ), #10, 'distance_accuracy_value', 'NONE');
#175 = APPLICATION_PROTOCOL_DEFINITION ( 'international standard', 'config_control_design', 1994, #237 ) ;
#176 = CALENDAR_DATE ( 2021, 1, 11 ) ;
#177 = APPROVAL ( #143, 'UNSPECIFIED' ) ;
#178 = DIRECTION ( 'NONE',  ( 0.0000000000000000000, 0.0000000000000000000, 1.000000000000000000 ) ) ;
#179 = CALENDAR_DATE ( 2021, 1, 11 ) ;
#180 = AXIS2_PLACEMENT_3D ( 'NONE', #122, #178, #157 ) ;
#181 = EDGE_LOOP ( 'NONE', ( #144 ) ) ;
#182 = LOCAL_TIME ( 10, 45, 29.00000000000000000, #29 ) ;
#183 = EDGE_LOOP ( 'NONE', ( #87 ) ) ;
#184 = PERSON_AND_ORGANIZATION ( #152, #118 ) ;
#185 = CARTESIAN_POINT ( 'NONE',  ( 1.326762908760390423E-13, -4.653657836759941941E-15, 38.00000000000000000 ) ) ;
#186 = FACE_OUTER_BOUND ( 'NONE', #147, .T. ) ;
#187 = LOCAL_TIME ( 10, 45, 29.00000000000000000, #33 ) ;
#188 = FACE_OUTER_BOUND ( 'NONE', #53, .T. ) ;
#189 = DIRECTION ( 'NONE',  ( -4.275831445896958607E-31, -1.000000000000000000, -1.224646799147353207E-16 ) ) ;
#190 = CYLINDRICAL_SURFACE ( 'NONE', #99, 1.499999999999991562 ) ;
#191 = AXIS2_PLACEMENT_3D ( 'NONE', #58, #170, #226 ) ;
#192 = ADVANCED_FACE ( 'NONE', ( #78, #153 ), #59, .T. ) ;
#193 = CIRCLE ( 'NONE', #113, 1.499999999999993783 ) ;
#194 = PERSON_AND_ORGANIZATION ( #152, #118 ) ;
#195 = APPROVAL_ROLE ( '' ) ;
#196 = APPROVAL_DATE_TIME ( #146, #177 ) ;
#197 = SECURITY_CLASSIFICATION ( '', '', #141 ) ;
#198 = APPROVAL ( #66, 'UNSPECIFIED' ) ;
#199 = EDGE_LOOP ( 'NONE', ( #34 ) ) ;
#200 = ORIENTED_EDGE ( 'NONE', *, *, #216, .T. ) ;
#201 = AXIS2_PLACEMENT_3D ( 'NONE', #185, #40, #18 ) ;
#202 = EDGE_LOOP ( 'NONE', ( #164 ) ) ;
#203 = DIRECTION ( 'NONE',  ( 0.0000000000000000000, -1.000000000000000000, 0.0000000000000000000 ) ) ;
#204 = PRODUCT_DEFINITION_SHAPE ( 'NONE', 'NONE',  #23 ) ;
#205 = CIRCLE ( 'NONE', #51, 0.3500000000000001998 ) ;
#206 = CARTESIAN_POINT ( 'NONE',  ( 1.326762908760390423E-13, 8.998558695971030697E-33, 38.00000000000000000 ) ) ;
#207 = PLANE ( 'NONE',  #108 ) ;
#208 = DIRECTION ( 'NONE',  ( -3.491481338843133355E-15, 1.224646799147353207E-16, -1.000000000000000000 ) ) ;
#209 = AXIS2_PLACEMENT_3D ( 'NONE', #22, #25, #92 ) ;
#210 = CARTESIAN_POINT ( 'NONE',  ( 6.695397606605640712E-15, -0.4181483474218605223, 1.917638090205028067 ) ) ;
#211 = CC_DESIGN_PERSON_AND_ORGANIZATION_ASSIGNMENT ( #240, #71, ( #172 ) ) ;
#212 = APPROVAL_STATUS ( 'not_yet_approved' ) ;
#213 = DATE_AND_TIME ( #179, #47 ) ;
#214 = CC_DESIGN_APPROVAL ( #233, ( #172 ) ) ;
#215 = VERTEX_POINT ( 'NONE', #232 ) ;
#216 = EDGE_CURVE ( 'NONE', #8, #8, #5, .T. ) ;
#217 = EDGE_LOOP ( 'NONE', ( #239 ) ) ;
#218 = CC_DESIGN_APPROVAL ( #177, ( #197 ) ) ;
#219 = ORIENTED_EDGE ( 'NONE', *, *, #27, .F. ) ;
#220 = CC_DESIGN_DATE_AND_TIME_ASSIGNMENT ( #155, #62, ( #23 ) ) ;
#221 = EDGE_LOOP ( 'NONE', ( #142 ) ) ;
#222 = ORIENTED_EDGE ( 'NONE', *, *, #70, .F. ) ;
#223 = AXIS2_PLACEMENT_3D ( 'NONE', #48, #43, #140 ) ;
#224 = DIRECTION ( 'NONE',  ( -3.491481338843133355E-15, 1.224646799147353207E-16, -1.000000000000000000 ) ) ;
#225 = CC_DESIGN_DATE_AND_TIME_ASSIGNMENT ( #49, #242, ( #197 ) ) ;
#226 = DIRECTION ( 'NONE',  ( -4.318010611786305654E-31, -1.000000000000000000, -1.219242935835426903E-16 ) ) ;
#227 = APPROVAL_PERSON_ORGANIZATION ( #194, #198, #195 ) ;
#228 = CARTESIAN_POINT ( 'NONE',  ( 4.888073874380383542E-15, -1.706940110169596530E-16, 1.399999999999999023 ) ) ;
#229 = PRODUCT_RELATED_PRODUCT_CATEGORY ( 'detail', '', ( #21 ) ) ;
#230 = DIRECTION ( 'NONE',  ( -4.256963957985700131E-31, -1.000000000000000000, -1.219242935835424684E-16 ) ) ;
#231 = FACE_OUTER_BOUND ( 'NONE', #221, .T. ) ;
#232 = CARTESIAN_POINT ( 'NONE',  ( 4.888073874380383542E-15, -0.3500000000000003664, 1.399999999999999023 ) ) ;
#233 = APPROVAL ( #212, 'UNSPECIFIED' ) ;
#234 = VERTEX_POINT ( 'NONE', #210 ) ;
#235 = CARTESIAN_POINT ( 'NONE',  ( 1.316288464743861212E-13, 1.499999999999989120, 37.69999999999999574 ) ) ;
#236 = PERSON_AND_ORGANIZATION_ROLE ( 'design_owner' ) ;
#237 = APPLICATION_CONTEXT ( 'configuration controlled 3d designs of mechanical parts and assemblies' ) ;
#238 =( GEOMETRIC_REPRESENTATION_CONTEXT ( 3 ) GLOBAL_UNCERTAINTY_ASSIGNED_CONTEXT ( ( #174 ) ) GLOBAL_UNIT_ASSIGNED_CONTEXT ( ( #10, #26, #124 ) ) REPRESENTATION_CONTEXT ( 'NONE', 'WORKASPACE' ) );
#239 = ORIENTED_EDGE ( 'NONE', *, *, #27, .T. ) ;
#240 = PERSON_AND_ORGANIZATION ( #152, #118 ) ;
#241 = EDGE_LOOP ( 'NONE', ( #219 ) ) ;
#242 = DATE_TIME_ROLE ( 'classification_date' ) ;
#243 = MANIFOLD_SOLID_BREP ( 'Corps-Déplacer/Copier1[2]', #69 ) ;
ENDSEC;
END-ISO-10303-21;
