ISO-10303-21;
HEADER;
FILE_DESCRIPTION (( 'STEP AP203' ),
    '1' );
FILE_NAME ('36231.step',
    '2021-11-01T09:45:28',
    ( '' ),
    ( '' ),
    'SwSTEP 2.0',
    'SolidWorks 2019',
    '' );
FILE_SCHEMA (( 'CONFIG_CONTROL_DESIGN' ));
ENDSEC;

DATA;
#1 = ORIENTED_EDGE ( 'NONE', *, *, #126, .F. ) ;
#2 = LOCAL_TIME ( 10, 45, 28.00000000000000000, #109 ) ;
#3 = EDGE_LOOP ( 'NONE', ( #1 ) ) ;
#4 = CARTESIAN_POINT ( 'NONE',  ( 3.377595073421994908E-14, -1.179473276161573442E-15, 9.673816771826500016 ) ) ;
#5 = PERSON_AND_ORGANIZATION ( #230, #23 ) ;
#6 = DIRECTION ( 'NONE',  ( 0.0000000000000000000, 1.000000000000000000, 0.0000000000000000000 ) ) ;
#7 = CC_DESIGN_PERSON_AND_ORGANIZATION_ASSIGNMENT ( #238, #123, ( #33 ) ) ;
#8 = DATE_TIME_ROLE ( 'classification_date' ) ;
#9 = CARTESIAN_POINT ( 'NONE',  ( 1.326762908760390423E-13, -4.653657836759941941E-15, 38.00000000000000000 ) ) ;
#10 = PERSON_AND_ORGANIZATION_ROLE ( 'design_supplier' ) ;
#11 = CARTESIAN_POINT ( 'NONE',  ( 4.189777606611758449E-15, -1.734723475976811532E-16, 1.199999999999999734 ) ) ;
#12 = PERSON_AND_ORGANIZATION_ROLE ( 'creator' ) ;
#13 = ADVANCED_FACE ( 'NONE', ( #158, #102 ), #225, .T. ) ;
#14 = DIRECTION ( 'NONE',  ( -3.491481338843133355E-15, 1.224646799147353207E-16, -1.000000000000000000 ) ) ;
#15 = APPROVAL_ROLE ( '' ) ;
#16 = CARTESIAN_POINT ( 'NONE',  ( 1.326762908760390423E-13, 1.199999999999989297, 38.00000000000000000 ) ) ;
#17 = VERTEX_POINT ( 'NONE', #218 ) ;
#18 = DIRECTION ( 'NONE',  ( 0.0000000000000000000, 0.0000000000000000000, 1.000000000000000000 ) ) ;
#19 = AXIS2_PLACEMENT_3D ( 'NONE', #192, #213, #64 ) ;
#20 = EDGE_LOOP ( 'NONE', ( #167 ) ) ;
#21 = CC_DESIGN_SECURITY_CLASSIFICATION ( #33, ( #170 ) ) ;
#22 = EDGE_LOOP ( 'NONE', ( #168 ) ) ;
#23 = ORGANIZATION ( 'UNSPECIFIED', 'UNSPECIFIED', '' ) ;
#24 = ORIENTED_EDGE ( 'NONE', *, *, #134, .T. ) ;
#25 = LOCAL_TIME ( 10, 45, 28.00000000000000000, #106 ) ;
#26 = FACE_OUTER_BOUND ( 'NONE', #62, .T. ) ;
#27 = DIRECTION ( 'NONE',  ( -3.491481338843133355E-15, 1.224646799147353207E-16, -1.000000000000000000 ) ) ;
#28 = CARTESIAN_POINT ( 'NONE',  ( 0.0000000000000000000, 0.0000000000000000000, 0.0000000000000000000 ) ) ;
#29 = APPROVAL_DATE_TIME ( #85, #92 ) ;
#30 = FACE_BOUND ( 'NONE', #189, .T. ) ;
#31 = FACE_OUTER_BOUND ( 'NONE', #20, .T. ) ;
#32 = PERSON_AND_ORGANIZATION_ROLE ( 'design_owner' ) ;
#33 = SECURITY_CLASSIFICATION ( '', '', #233 ) ;
#34 =( LENGTH_UNIT ( ) NAMED_UNIT ( * ) SI_UNIT ( .MILLI., .METRE. ) );
#35 = AXIS2_PLACEMENT_3D ( 'NONE', #28, #101, #215 ) ;
#36 = APPROVAL_ROLE ( '' ) ;
#37 = LOCAL_TIME ( 10, 45, 28.00000000000000000, #156 ) ;
#38 = ADVANCED_FACE ( 'NONE', ( #202, #176 ), #227, .T. ) ;
#39 = APPLICATION_CONTEXT ( 'configuration controlled 3d designs of mechanical parts and assemblies' ) ;
#40 = CC_DESIGN_PERSON_AND_ORGANIZATION_ASSIGNMENT ( #214, #12, ( #170 ) ) ;
#41 = CC_DESIGN_APPROVAL ( #240, ( #33 ) ) ;
#42 = ORIENTED_EDGE ( 'NONE', *, *, #80, .T. ) ;
#43 = CC_DESIGN_PERSON_AND_ORGANIZATION_ASSIGNMENT ( #195, #10, ( #170 ) ) ;
#44 = PLANE ( 'NONE',  #87 ) ;
#45 = CARTESIAN_POINT ( 'NONE',  ( 1.326762908760390423E-13, 8.998558695971030697E-33, 38.00000000000000000 ) ) ;
#46 = DESIGN_CONTEXT ( 'detailed design', #39, 'design' ) ;
#47 = CIRCLE ( 'NONE', #184, 0.3000000000000000999 ) ;
#48 = AXIS2_PLACEMENT_3D ( 'NONE', #81, #69, #140 ) ;
#49 = PLANE ( 'NONE',  #137 ) ;
#50 = DATE_AND_TIME ( #139, #37 ) ;
#51 = CARTESIAN_POINT ( 'NONE',  ( 1.316288464743861212E-13, -4.616918432785521081E-15, 37.69999999999999574 ) ) ;
#52 = CALENDAR_DATE ( 2021, 1, 11 ) ;
#53 = CARTESIAN_POINT ( 'NONE',  ( 4.189777606611756871E-15, 0.0000000000000000000, 1.199999999999999067 ) ) ;
#54 = DATE_AND_TIME ( #52, #165 ) ;
#55 = CARTESIAN_POINT ( 'NONE',  ( 0.0000000000000000000, 0.0000000000000000000, 0.0000000000000000000 ) ) ;
#56 = CC_DESIGN_DATE_AND_TIME_ASSIGNMENT ( #50, #231, ( #94 ) ) ;
#57 =( NAMED_UNIT ( * ) PLANE_ANGLE_UNIT ( ) SI_UNIT ( $, .RADIAN. ) );
#58 = CONICAL_SURFACE ( 'NONE', #128, 1.199999999999993738, 0.7853981633974453924 ) ;
#59 = DIRECTION ( 'NONE',  ( 1.000000000000000000, 0.0000000000000000000, 0.0000000000000000000 ) ) ;
#60 = AXIS2_PLACEMENT_3D ( 'NONE', #51, #121, #155 ) ;
#61 = EDGE_LOOP ( 'NONE', ( #171 ) ) ;
#62 = EDGE_LOOP ( 'NONE', ( #111 ) ) ;
#63 = ADVANCED_FACE ( 'NONE', ( #136 ), #115, .F. ) ;
#64 = DIRECTION ( 'NONE',  ( -4.275831445896958607E-31, -1.000000000000000000, -1.224646799147353207E-16 ) ) ;
#65 = CARTESIAN_POINT ( 'NONE',  ( -3.334593446324119757E-30, 1.164456890570383054E-31, -9.550655216816948358E-16 ) ) ;
#66 = DIRECTION ( 'NONE',  ( 0.0000000000000000000, 1.000000000000000000, 0.0000000000000000000 ) ) ;
#67 = AXIS2_PLACEMENT_3D ( 'NONE', #65, #135, #210 ) ;
#68 = DATE_AND_TIME ( #100, #188 ) ;
#69 = DIRECTION ( 'NONE',  ( 3.491481338843133355E-15, -1.219242935835426903E-16, 1.000000000000000000 ) ) ;
#70 = CARTESIAN_POINT ( 'NONE',  ( -1.282754905350004587E-30, 4.499298539707956128E-32, -3.673956068672651857E-16 ) ) ;
#71 = VERTEX_POINT ( 'NONE', #129 ) ;
#72 = APPROVAL_DATE_TIME ( #242, #216 ) ;
#73 = MANIFOLD_SOLID_BREP ( 'Corps-Déplacer/Copier1[2]', #144 ) ;
#74 = EDGE_LOOP ( 'NONE', ( #150 ) ) ;
#75 = EDGE_LOOP ( 'NONE', ( #152 ) ) ;
#76 = ORIENTED_EDGE ( 'NONE', *, *, #126, .T. ) ;
#77 = APPROVAL_PERSON_ORGANIZATION ( #183, #216, #36 ) ;
#78 = MANIFOLD_SOLID_BREP ( 'Corps-Déplacer/Copier1[1]', #159 ) ;
#79 = ORIENTED_EDGE ( 'NONE', *, *, #149, .F. ) ;
#80 = EDGE_CURVE ( 'NONE', #219, #219, #118, .T. ) ;
#81 = CARTESIAN_POINT ( 'NONE',  ( 5.997101338837014041E-15, -2.094218107804334090E-16, 1.717638090205027890 ) ) ;
#82 = APPROVAL_ROLE ( '' ) ;
#83 = DIRECTION ( 'NONE',  ( 0.0000000000000000000, -1.000000000000000000, 0.0000000000000000000 ) ) ;
#84 = DIRECTION ( 'NONE',  ( 0.0000000000000000000, -1.000000000000000000, 0.0000000000000000000 ) ) ;
#85 = DATE_AND_TIME ( #201, #25 ) ;
#86 = DIRECTION ( 'NONE',  ( 3.491481338843133355E-15, -1.219242935835426903E-16, 1.000000000000000000 ) ) ;
#87 = AXIS2_PLACEMENT_3D ( 'NONE', #11, #99, #160 ) ;
#88 = PERSON_AND_ORGANIZATION ( #230, #23 ) ;
#89 = DIRECTION ( 'NONE',  ( 4.275831445896958607E-31, 1.000000000000000000, 1.224646799147353207E-16 ) ) ;
#90 = CC_DESIGN_APPROVAL ( #92, ( #170 ) ) ;
#91 = CARTESIAN_POINT ( 'NONE',  ( 1.316288464743861212E-13, 1.499999999999989120, 37.69999999999999574 ) ) ;
#92 = APPROVAL ( #199, 'UNSPECIFIED' ) ;
#93 = VERTEX_POINT ( 'NONE', #220 ) ;
#94 = PRODUCT_DEFINITION ( 'UNKNOWN', '', #170, #46 ) ;
#95 = APPROVAL_STATUS ( 'not_yet_approved' ) ;
#96 = CIRCLE ( 'NONE', #211, 0.3000000000000000999 ) ;
#97 = TOROIDAL_SURFACE ( 'NONE', #162, 2.299999999999999822, 2.000000000000000000 ) ;
#98 = ORIENTED_EDGE ( 'NONE', *, *, #191, .T. ) ;
#99 = DIRECTION ( 'NONE',  ( 3.491481338843133355E-15, -1.224646799147353207E-16, 1.000000000000000000 ) ) ;
#100 = CALENDAR_DATE ( 2021, 1, 11 ) ;
#101 = DIRECTION ( 'NONE',  ( 3.491481338843133355E-15, -1.219242935835426903E-16, 1.000000000000000000 ) ) ;
#102 = FACE_OUTER_BOUND ( 'NONE', #186, .T. ) ;
#103 = APPROVAL_DATE_TIME ( #54, #240 ) ;
#104 = DIRECTION ( 'NONE',  ( 3.491481338843133355E-15, -1.219242935835426903E-16, 1.000000000000000000 ) ) ;
#105 = FACE_OUTER_BOUND ( 'NONE', #61, .T. ) ;
#106 = COORDINATED_UNIVERSAL_TIME_OFFSET ( 1, 0, .AHEAD. ) ;
#107 = EDGE_CURVE ( 'NONE', #71, #71, #47, .T. ) ;
#108 = PERSON_AND_ORGANIZATION ( #230, #23 ) ;
#109 = COORDINATED_UNIVERSAL_TIME_OFFSET ( 1, 0, .AHEAD. ) ;
#110 = CC_DESIGN_PERSON_AND_ORGANIZATION_ASSIGNMENT ( #88, #181, ( #94 ) ) ;
#111 = ORIENTED_EDGE ( 'NONE', *, *, #107, .T. ) ;
#112 = CIRCLE ( 'NONE', #60, 1.499999999999993783 ) ;
#113 = DIRECTION ( 'NONE',  ( 0.0000000000000000000, -1.000000000000000000, 0.0000000000000000000 ) ) ;
#114 = APPROVAL_PERSON_ORGANIZATION ( #5, #240, #82 ) ;
#115 = PLANE ( 'NONE',  #19 ) ;
#116 = PLANE ( 'NONE',  #154 ) ;
#117 = ADVANCED_FACE ( 'NONE', ( #31, #212 ), #209, .T. ) ;
#118 = CIRCLE ( 'NONE', #153, 1.199999999999993738 ) ;
#119 = AXIS2_PLACEMENT_3D ( 'NONE', #4, #232, #83 ) ;
#120 = DIRECTION ( 'NONE',  ( 3.491481338843133355E-15, -1.224646799147353207E-16, 1.000000000000000000 ) ) ;
#121 = DIRECTION ( 'NONE',  ( -3.491481338843133355E-15, 1.224646799147353207E-16, -1.000000000000000000 ) ) ;
#122 = ADVANCED_FACE ( 'NONE', ( #235 ), #49, .F. ) ;
#123 = PERSON_AND_ORGANIZATION_ROLE ( 'classification_officer' ) ;
#124 = COORDINATED_UNIVERSAL_TIME_OFFSET ( 1, 0, .AHEAD. ) ;
#125 = DIRECTION ( 'NONE',  ( 3.491481338843133355E-15, -1.219242935835426903E-16, 1.000000000000000000 ) ) ;
#126 = EDGE_CURVE ( 'NONE', #17, #17, #161, .T. ) ;
#127 = VERTEX_POINT ( 'NONE', #91 ) ;
#128 = AXIS2_PLACEMENT_3D ( 'NONE', #174, #180, #6 ) ;
#129 = CARTESIAN_POINT ( 'NONE',  ( 4.189777606611756871E-15, -0.3000000000000002665, 1.199999999999999067 ) ) ;
#130 = ADVANCED_FACE ( 'NONE', ( #105, #30 ), #58, .T. ) ;
#131 = ORIENTED_EDGE ( 'NONE', *, *, #134, .F. ) ;
#132 = EDGE_LOOP ( 'NONE', ( #208 ) ) ;
#133 = CC_DESIGN_PERSON_AND_ORGANIZATION_ASSIGNMENT ( #108, #32, ( #151 ) ) ;
#134 = EDGE_CURVE ( 'NONE', #147, #147, #96, .T. ) ;
#135 = DIRECTION ( 'NONE',  ( 3.491481338843133355E-15, -1.219242935835426903E-16, 1.000000000000000000 ) ) ;
#136 = FACE_OUTER_BOUND ( 'NONE', #223, .T. ) ;
#137 = AXIS2_PLACEMENT_3D ( 'NONE', #70, #120, #163 ) ;
#138 = CC_DESIGN_APPROVAL ( #216, ( #94 ) ) ;
#139 = CALENDAR_DATE ( 2021, 1, 11 ) ;
#140 = DIRECTION ( 'NONE',  ( 0.0000000000000000000, -1.000000000000000000, 0.0000000000000000000 ) ) ;
#141 = APPROVAL_STATUS ( 'not_yet_approved' ) ;
#142 = DIRECTION ( 'NONE',  ( 4.275831445896958607E-31, 1.000000000000000000, 1.224646799147353207E-16 ) ) ;
#143 = APPLICATION_PROTOCOL_DEFINITION ( 'international standard', 'config_control_design', 1994, #164 ) ;
#144 = CLOSED_SHELL ( 'NONE', ( #145, #117, #122 ) ) ;
#145 = ADVANCED_FACE ( 'NONE', ( #26 ), #44, .T. ) ;
#146 = FACE_OUTER_BOUND ( 'NONE', #207, .T. ) ;
#147 = VERTEX_POINT ( 'NONE', #148 ) ;
#148 = CARTESIAN_POINT ( 'NONE',  ( 4.189777606611756871E-15, -0.3000000000000002665, 1.199999999999999067 ) ) ;
#149 = EDGE_CURVE ( 'NONE', #93, #93, #222, .T. ) ;
#150 = ORIENTED_EDGE ( 'NONE', *, *, #178, .T. ) ;
#151 = PRODUCT ( '36231', '36231', '', ( #203 ) ) ;
#152 = ORIENTED_EDGE ( 'NONE', *, *, #178, .F. ) ;
#153 = AXIS2_PLACEMENT_3D ( 'NONE', #9, #193, #66 ) ;
#154 = AXIS2_PLACEMENT_3D ( 'NONE', #45, #14, #89 ) ;
#155 = DIRECTION ( 'NONE',  ( 0.0000000000000000000, 1.000000000000000000, 0.0000000000000000000 ) ) ;
#156 = COORDINATED_UNIVERSAL_TIME_OFFSET ( 1, 0, .AHEAD. ) ;
#157 = CARTESIAN_POINT ( 'NONE',  ( 4.189777606611756871E-15, -1.463091523002511100E-16, 1.199999999999999067 ) ) ;
#158 = FACE_BOUND ( 'NONE', #74, .T. ) ;
#159 = CLOSED_SHELL ( 'NONE', ( #38, #130, #166, #13, #237, #63 ) ) ;
#160 = DIRECTION ( 'NONE',  ( -4.275831445896958607E-31, -1.000000000000000000, -1.224646799147353207E-16 ) ) ;
#161 = CIRCLE ( 'NONE', #169, 1.499999999999991562 ) ;
#162 = AXIS2_PLACEMENT_3D ( 'NONE', #53, #125, #239 ) ;
#163 = DIRECTION ( 'NONE',  ( -4.275831445896958607E-31, -1.000000000000000000, -1.224646799147353207E-16 ) ) ;
#164 = APPLICATION_CONTEXT ( 'configuration controlled 3d designs of mechanical parts and assemblies' ) ;
#165 = LOCAL_TIME ( 10, 45, 28.00000000000000000, #217 ) ;
#166 = ADVANCED_FACE ( 'NONE', ( #172 ), #116, .F. ) ;
#167 = ORIENTED_EDGE ( 'NONE', *, *, #149, .T. ) ;
#168 = ORIENTED_EDGE ( 'NONE', *, *, #107, .F. ) ;
#169 = AXIS2_PLACEMENT_3D ( 'NONE', #200, #236, #113 ) ;
#170 = PRODUCT_DEFINITION_FORMATION_WITH_SPECIFIED_SOURCE ( 'ANY', '', #151, .NOT_KNOWN. ) ;
#171 = ORIENTED_EDGE ( 'NONE', *, *, #191, .F. ) ;
#172 = FACE_OUTER_BOUND ( 'NONE', #132, .T. ) ;
#173 = PERSON_AND_ORGANIZATION ( #230, #23 ) ;
#174 = CARTESIAN_POINT ( 'NONE',  ( 1.326762908760390423E-13, -4.653657836759941941E-15, 38.00000000000000000 ) ) ;
#175 = PRODUCT_DEFINITION_SHAPE ( 'NONE', 'NONE',  #94 ) ;
#176 = FACE_OUTER_BOUND ( 'NONE', #3, .T. ) ;
#177 = ADVANCED_BREP_SHAPE_REPRESENTATION ( '36231', ( #78, #73, #234 ), #190 ) ;
#178 = EDGE_CURVE ( 'NONE', #221, #221, #206, .T. ) ;
#179 = CARTESIAN_POINT ( 'NONE',  ( 4.189777606611756871E-15, -1.463091523002511100E-16, 1.199999999999999067 ) ) ;
#180 = DIRECTION ( 'NONE',  ( -3.491481338843133355E-15, 1.224646799147353207E-16, -1.000000000000000000 ) ) ;
#181 = PERSON_AND_ORGANIZATION_ROLE ( 'creator' ) ;
#182 = FACE_OUTER_BOUND ( 'NONE', #75, .T. ) ;
#183 = PERSON_AND_ORGANIZATION ( #230, #23 ) ;
#184 = AXIS2_PLACEMENT_3D ( 'NONE', #157, #104, #84 ) ;
#185 = CALENDAR_DATE ( 2021, 1, 11 ) ;
#186 = EDGE_LOOP ( 'NONE', ( #76 ) ) ;
#187 = CC_DESIGN_DATE_AND_TIME_ASSIGNMENT ( #68, #8, ( #33 ) ) ;
#188 = LOCAL_TIME ( 10, 45, 28.00000000000000000, #124 ) ;
#189 = EDGE_LOOP ( 'NONE', ( #42 ) ) ;
#190 =( GEOMETRIC_REPRESENTATION_CONTEXT ( 3 ) GLOBAL_UNCERTAINTY_ASSIGNED_CONTEXT ( ( #198 ) ) GLOBAL_UNIT_ASSIGNED_CONTEXT ( ( #34, #57, #241 ) ) REPRESENTATION_CONTEXT ( 'NONE', 'WORKASPACE' ) );
#191 = EDGE_CURVE ( 'NONE', #127, #127, #112, .T. ) ;
#192 = CARTESIAN_POINT ( 'NONE',  ( 4.189777606611758449E-15, -1.734723475976811532E-16, 1.199999999999999734 ) ) ;
#193 = DIRECTION ( 'NONE',  ( -3.491481338843133355E-15, 1.224646799147353207E-16, -1.000000000000000000 ) ) ;
#194 = APPROVAL_PERSON_ORGANIZATION ( #173, #92, #15 ) ;
#195 = PERSON_AND_ORGANIZATION ( #230, #23 ) ;
#196 = CARTESIAN_POINT ( 'NONE',  ( 0.0000000000000000000, 0.0000000000000000000, 0.0000000000000000000 ) ) ;
#197 = PRODUCT_RELATED_PRODUCT_CATEGORY ( 'detail', '', ( #151 ) ) ;
#198 = UNCERTAINTY_MEASURE_WITH_UNIT (LENGTH_MEASURE( 1.000000000000000082E-05 ), #34, 'distance_accuracy_value', 'NONE');
#199 = APPROVAL_STATUS ( 'not_yet_approved' ) ;
#200 = CARTESIAN_POINT ( 'NONE',  ( 2.074556498397841497E-14, -7.244456178308358078E-16, 5.941765964257522903 ) ) ;
#201 = CALENDAR_DATE ( 2021, 1, 11 ) ;
#202 = FACE_OUTER_BOUND ( 'NONE', #224, .T. ) ;
#203 = MECHANICAL_CONTEXT ( 'NONE', #164, 'mechanical' ) ;
#204 = CARTESIAN_POINT ( 'NONE',  ( 5.997101338837014041E-15, -0.3681483474218603669, 1.717638090205027890 ) ) ;
#205 = APPLICATION_PROTOCOL_DEFINITION ( 'international standard', 'config_control_design', 1994, #39 ) ;
#206 = CIRCLE ( 'NONE', #48, 0.3681483474218601448 ) ;
#207 = EDGE_LOOP ( 'NONE', ( #24 ) ) ;
#208 = ORIENTED_EDGE ( 'NONE', *, *, #80, .F. ) ;
#209 = CYLINDRICAL_SURFACE ( 'NONE', #35, 0.3000000000000000444 ) ;
#210 = DIRECTION ( 'NONE',  ( -4.256963957985718523E-31, -1.000000000000000000, -1.219242935835426903E-16 ) ) ;
#211 = AXIS2_PLACEMENT_3D ( 'NONE', #179, #86, #229 ) ;
#212 = FACE_OUTER_BOUND ( 'NONE', #22, .T. ) ;
#213 = DIRECTION ( 'NONE',  ( 3.491481338843133355E-15, -1.224646799147353207E-16, 1.000000000000000000 ) ) ;
#214 = PERSON_AND_ORGANIZATION ( #230, #23 ) ;
#215 = DIRECTION ( 'NONE',  ( -4.256963957985708889E-31, -1.000000000000000000, -1.219242935835426656E-16 ) ) ;
#216 = APPROVAL ( #95, 'UNSPECIFIED' ) ;
#217 = COORDINATED_UNIVERSAL_TIME_OFFSET ( 1, 0, .AHEAD. ) ;
#218 = CARTESIAN_POINT ( 'NONE',  ( 2.074556498397841497E-14, -1.499999999999992228, 5.941765964257522903 ) ) ;
#219 = VERTEX_POINT ( 'NONE', #16 ) ;
#220 = CARTESIAN_POINT ( 'NONE',  ( -3.462302365063691015E-30, -0.2999999999999999334, -9.916428097567574654E-16 ) ) ;
#221 = VERTEX_POINT ( 'NONE', #204 ) ;
#222 = CIRCLE ( 'NONE', #67, 0.2999999999999999334 ) ;
#223 = EDGE_LOOP ( 'NONE', ( #131 ) ) ;
#224 = EDGE_LOOP ( 'NONE', ( #98 ) ) ;
#225 = CONICAL_SURFACE ( 'NONE', #119, 2.499999999999992895, 0.2617993877991429685 ) ;
#226 = EDGE_LOOP ( 'NONE', ( #79 ) ) ;
#227 = CYLINDRICAL_SURFACE ( 'NONE', #243, 1.499999999999991562 ) ;
#228 = SHAPE_DEFINITION_REPRESENTATION ( #175, #177 ) ;
#229 = DIRECTION ( 'NONE',  ( 0.0000000000000000000, -1.000000000000000000, 0.0000000000000000000 ) ) ;
#230 = PERSON ( 'UNSPECIFIED', 'UNSPECIFIED', 'UNSPECIFIED', ('UNSPECIFIED'), ('UNSPECIFIED'), ('UNSPECIFIED') ) ;
#231 = DATE_TIME_ROLE ( 'creation_date' ) ;
#232 = DIRECTION ( 'NONE',  ( 3.491481338843133355E-15, -1.219242935835426903E-16, 1.000000000000000000 ) ) ;
#233 = SECURITY_CLASSIFICATION_LEVEL ( 'unclassified' ) ;
#234 = AXIS2_PLACEMENT_3D ( 'NONE', #55, #18, #59 ) ;
#235 = FACE_OUTER_BOUND ( 'NONE', #226, .T. ) ;
#236 = DIRECTION ( 'NONE',  ( -3.491481338843133355E-15, 1.219242935835426903E-16, -1.000000000000000000 ) ) ;
#237 = ADVANCED_FACE ( 'NONE', ( #146, #182 ), #97, .F. ) ;
#238 = PERSON_AND_ORGANIZATION ( #230, #23 ) ;
#239 = DIRECTION ( 'NONE',  ( -4.318720456597940409E-31, -1.000000000000000000, -1.219242935835426903E-16 ) ) ;
#240 = APPROVAL ( #141, 'UNSPECIFIED' ) ;
#241 =( NAMED_UNIT ( * ) SI_UNIT ( $, .STERADIAN. ) SOLID_ANGLE_UNIT ( ) );
#242 = DATE_AND_TIME ( #185, #2 ) ;
#243 = AXIS2_PLACEMENT_3D ( 'NONE', #196, #27, #142 ) ;
ENDSEC;
END-ISO-10303-21;
