ISO-10303-21;
HEADER;
FILE_DESCRIPTION (( 'STEP AP203' ),
    '1' );
FILE_NAME ('36230.step',
    '2021-11-01T09:45:28',
    ( '' ),
    ( '' ),
    'SwSTEP 2.0',
    'SolidWorks 2019',
    '' );
FILE_SCHEMA (( 'CONFIG_CONTROL_DESIGN' ));
ENDSEC;

DATA;
#1 = DIRECTION ( 'NONE',  ( 4.275831445896958607E-31, 1.000000000000000000, 1.224646799147353207E-16 ) ) ;
#2 = EDGE_CURVE ( 'NONE', #6, #6, #71, .T. ) ;
#3 = FACE_OUTER_BOUND ( 'NONE', #197, .T. ) ;
#4 =( GEOMETRIC_REPRESENTATION_CONTEXT ( 3 ) GLOBAL_UNCERTAINTY_ASSIGNED_CONTEXT ( ( #188 ) ) GLOBAL_UNIT_ASSIGNED_CONTEXT ( ( #47, #152, #194 ) ) REPRESENTATION_CONTEXT ( 'NONE', 'WORKASPACE' ) );
#5 = DIRECTION ( 'NONE',  ( 3.491481338843133355E-15, -1.219242935835426903E-16, 1.000000000000000000 ) ) ;
#6 = VERTEX_POINT ( 'NONE', #136 ) ;
#7 = CALENDAR_DATE ( 2021, 1, 11 ) ;
#8 = AXIS2_PLACEMENT_3D ( 'NONE', #41, #38, #24 ) ;
#9 = DIRECTION ( 'NONE',  ( -4.256963957985708889E-31, -1.000000000000000000, -1.219242935835426903E-16 ) ) ;
#10 = CC_DESIGN_PERSON_AND_ORGANIZATION_ASSIGNMENT ( #137, #82, ( #213 ) ) ;
#11 = APPROVAL_ROLE ( '' ) ;
#12 = APPLICATION_CONTEXT ( 'configuration controlled 3d designs of mechanical parts and assemblies' ) ;
#13 = AXIS2_PLACEMENT_3D ( 'NONE', #92, #55, #111 ) ;
#14 = DATE_AND_TIME ( #83, #58 ) ;
#15 = EDGE_LOOP ( 'NONE', ( #160 ) ) ;
#16 = APPROVAL_STATUS ( 'not_yet_approved' ) ;
#17 = EDGE_LOOP ( 'NONE', ( #88 ) ) ;
#18 = ORIENTED_EDGE ( 'NONE', *, *, #239, .F. ) ;
#19 = FACE_OUTER_BOUND ( 'NONE', #53, .T. ) ;
#20 = CARTESIAN_POINT ( 'NONE',  ( 1.326762908760390423E-13, -4.653657836759941941E-15, 38.00000000000000000 ) ) ;
#21 = APPROVAL_PERSON_ORGANIZATION ( #43, #177, #11 ) ;
#22 = FACE_OUTER_BOUND ( 'NONE', #17, .T. ) ;
#23 = FACE_OUTER_BOUND ( 'NONE', #49, .T. ) ;
#24 = DIRECTION ( 'NONE',  ( 4.275831445896958607E-31, 1.000000000000000000, 1.224646799147353207E-16 ) ) ;
#25 = DATE_AND_TIME ( #117, #199 ) ;
#26 = DATE_TIME_ROLE ( 'creation_date' ) ;
#27 = DIRECTION ( 'NONE',  ( -4.256963957985712392E-31, -1.000000000000000000, -1.219242935835429368E-16 ) ) ;
#28 = CC_DESIGN_APPROVAL ( #125, ( #96 ) ) ;
#29 = APPROVAL_STATUS ( 'not_yet_approved' ) ;
#30 = EDGE_CURVE ( 'NONE', #61, #61, #222, .T. ) ;
#31 = CALENDAR_DATE ( 2021, 1, 11 ) ;
#32 = AXIS2_PLACEMENT_3D ( 'NONE', #147, #5, #189 ) ;
#33 = ORIENTED_EDGE ( 'NONE', *, *, #218, .F. ) ;
#34 = ORIENTED_EDGE ( 'NONE', *, *, #2, .F. ) ;
#35 = CONICAL_SURFACE ( 'NONE', #142, 1.199999999999993738, 0.7853981633974453924 ) ;
#36 = CARTESIAN_POINT ( 'NONE',  ( 0.0000000000000000000, 0.0000000000000000000, 0.0000000000000000000 ) ) ;
#37 = CARTESIAN_POINT ( 'NONE',  ( 1.326762908760390423E-13, -4.653657836759941941E-15, 38.00000000000000000 ) ) ;
#38 = DIRECTION ( 'NONE',  ( -3.491481338843133355E-15, 1.224646799147353207E-16, -1.000000000000000000 ) ) ;
#39 = DIRECTION ( 'NONE',  ( 0.0000000000000000000, -1.000000000000000000, 0.0000000000000000000 ) ) ;
#40 = AXIS2_PLACEMENT_3D ( 'NONE', #240, #116, #39 ) ;
#41 = CARTESIAN_POINT ( 'NONE',  ( 1.326762908760390423E-13, 8.998558695971030697E-33, 38.00000000000000000 ) ) ;
#42 = ADVANCED_FACE ( 'NONE', ( #23, #219 ), #70, .T. ) ;
#43 = PERSON_AND_ORGANIZATION ( #153, #196 ) ;
#44 = CC_DESIGN_PERSON_AND_ORGANIZATION_ASSIGNMENT ( #50, #182, ( #96 ) ) ;
#45 = APPROVAL_STATUS ( 'not_yet_approved' ) ;
#46 = CLOSED_SHELL ( 'NONE', ( #115, #224, #62 ) ) ;
#47 =( LENGTH_UNIT ( ) NAMED_UNIT ( * ) SI_UNIT ( .MILLI., .METRE. ) );
#48 = AXIS2_PLACEMENT_3D ( 'NONE', #91, #163, #169 ) ;
#49 = EDGE_LOOP ( 'NONE', ( #65 ) ) ;
#50 = PERSON_AND_ORGANIZATION ( #153, #196 ) ;
#51 = EDGE_LOOP ( 'NONE', ( #183 ) ) ;
#52 = DATE_TIME_ROLE ( 'classification_date' ) ;
#53 = EDGE_LOOP ( 'NONE', ( #105 ) ) ;
#54 = FACE_OUTER_BOUND ( 'NONE', #198, .T. ) ;
#55 = DIRECTION ( 'NONE',  ( 3.491481338843133355E-15, -1.219242935835426903E-16, 1.000000000000000000 ) ) ;
#56 = DIRECTION ( 'NONE',  ( -3.491481338843133355E-15, 1.224646799147353207E-16, -1.000000000000000000 ) ) ;
#57 = DIRECTION ( 'NONE',  ( -3.491481338843133355E-15, 1.224646799147353207E-16, -1.000000000000000000 ) ) ;
#58 = LOCAL_TIME ( 10, 45, 28.00000000000000000, #231 ) ;
#59 = DIRECTION ( 'NONE',  ( 3.491481338843133355E-15, -1.219242935835426903E-16, 1.000000000000000000 ) ) ;
#60 = CARTESIAN_POINT ( 'NONE',  ( 2.069878800372186153E-14, -1.499999999999992228, 5.928368504635970204 ) ) ;
#61 = VERTEX_POINT ( 'NONE', #191 ) ;
#62 = ADVANCED_FACE ( 'NONE', ( #75 ), #131, .F. ) ;
#63 = COORDINATED_UNIVERSAL_TIME_OFFSET ( 1, 0, .AHEAD. ) ;
#64 = APPROVAL ( #16, 'UNSPECIFIED' ) ;
#65 = ORIENTED_EDGE ( 'NONE', *, *, #148, .T. ) ;
#66 = CONICAL_SURFACE ( 'NONE', #32, 2.499999999999992895, 0.2617993877991429685 ) ;
#67 = COORDINATED_UNIVERSAL_TIME_OFFSET ( 1, 0, .AHEAD. ) ;
#68 = ADVANCED_FACE ( 'NONE', ( #185, #19 ), #66, .T. ) ;
#69 = ORIENTED_EDGE ( 'NONE', *, *, #109, .T. ) ;
#70 = CYLINDRICAL_SURFACE ( 'NONE', #86, 1.499999999999991562 ) ;
#71 = CIRCLE ( 'NONE', #40, 0.2500000000000003331 ) ;
#72 = DIRECTION ( 'NONE',  ( 3.491481338843133355E-15, -1.224646799147353207E-16, 1.000000000000000000 ) ) ;
#73 = CC_DESIGN_PERSON_AND_ORGANIZATION_ASSIGNMENT ( #104, #159, ( #96 ) ) ;
#74 = DESIGN_CONTEXT ( 'detailed design', #138, 'design' ) ;
#75 = FACE_OUTER_BOUND ( 'NONE', #127, .T. ) ;
#76 = FACE_OUTER_BOUND ( 'NONE', #157, .T. ) ;
#77 = CIRCLE ( 'NONE', #107, 0.2500000000000000000 ) ;
#78 = CARTESIAN_POINT ( 'NONE',  ( 3.491481338843130989E-15, 0.0000000000000000000, 0.9999999999999993339 ) ) ;
#79 = CARTESIAN_POINT ( 'NONE',  ( 1.316288464743861212E-13, 1.499999999999989120, 37.69999999999999574 ) ) ;
#80 = VERTEX_POINT ( 'NONE', #209 ) ;
#81 = PRODUCT_RELATED_PRODUCT_CATEGORY ( 'detail', '', ( #213 ) ) ;
#82 = PERSON_AND_ORGANIZATION_ROLE ( 'design_owner' ) ;
#83 = CALENDAR_DATE ( 2021, 1, 11 ) ;
#84 = CC_DESIGN_DATE_AND_TIME_ASSIGNMENT ( #210, #26, ( #161 ) ) ;
#85 = ORIENTED_EDGE ( 'NONE', *, *, #30, .T. ) ;
#86 = AXIS2_PLACEMENT_3D ( 'NONE', #165, #56, #1 ) ;
#87 = EDGE_LOOP ( 'NONE', ( #121 ) ) ;
#88 = ORIENTED_EDGE ( 'NONE', *, *, #148, .F. ) ;
#89 = DIRECTION ( 'NONE',  ( 0.0000000000000000000, 1.000000000000000000, 0.0000000000000000000 ) ) ;
#90 = AXIS2_PLACEMENT_3D ( 'NONE', #120, #193, #212 ) ;
#91 = CARTESIAN_POINT ( 'NONE',  ( 1.316288464743861212E-13, -4.616918432785521081E-15, 37.69999999999999574 ) ) ;
#92 = CARTESIAN_POINT ( 'NONE',  ( 3.491481338843130200E-15, -1.219242935835425917E-16, 0.9999999999999991118 ) ) ;
#93 = FACE_OUTER_BOUND ( 'NONE', #180, .T. ) ;
#94 = ADVANCED_FACE ( 'NONE', ( #76 ), #190, .F. ) ;
#95 = DIRECTION ( 'NONE',  ( 0.0000000000000000000, -1.000000000000000000, 0.0000000000000000000 ) ) ;
#96 = PRODUCT_DEFINITION_FORMATION_WITH_SPECIFIED_SOURCE ( 'ANY', '', #213, .NOT_KNOWN. ) ;
#97 = APPROVAL_ROLE ( '' ) ;
#98 = CARTESIAN_POINT ( 'NONE',  ( -3.313308626534190981E-30, 1.157024123887460155E-31, -9.489693070025177309E-16 ) ) ;
#99 = CC_DESIGN_PERSON_AND_ORGANIZATION_ASSIGNMENT ( #192, #195, ( #161 ) ) ;
#100 = VERTEX_POINT ( 'NONE', #79 ) ;
#101 = ADVANCED_FACE ( 'NONE', ( #22, #221 ), #35, .T. ) ;
#102 = PERSON_AND_ORGANIZATION ( #153, #196 ) ;
#103 = TOROIDAL_SURFACE ( 'NONE', #186, 2.250000000000000444, 2.000000000000000000 ) ;
#104 = PERSON_AND_ORGANIZATION ( #153, #196 ) ;
#105 = ORIENTED_EDGE ( 'NONE', *, *, #164, .T. ) ;
#106 = EDGE_LOOP ( 'NONE', ( #69 ) ) ;
#107 = AXIS2_PLACEMENT_3D ( 'NONE', #98, #227, #27 ) ;
#108 = ORIENTED_EDGE ( 'NONE', *, *, #109, .F. ) ;
#109 = EDGE_CURVE ( 'NONE', #140, #140, #211, .T. ) ;
#110 = DIRECTION ( 'NONE',  ( 3.491481338843133355E-15, -1.219242935835426903E-16, 1.000000000000000000 ) ) ;
#111 = DIRECTION ( 'NONE',  ( 0.0000000000000000000, -1.000000000000000000, 0.0000000000000000000 ) ) ;
#112 = CIRCLE ( 'NONE', #242, 0.3181483474218604335 ) ;
#113 = DIRECTION ( 'NONE',  ( 3.491481338843133355E-15, -1.224646799147353207E-16, 1.000000000000000000 ) ) ;
#114 = DIRECTION ( 'NONE',  ( -4.275831445896958607E-31, -1.000000000000000000, -1.224646799147353207E-16 ) ) ;
#115 = ADVANCED_FACE ( 'NONE', ( #202 ), #162, .T. ) ;
#116 = DIRECTION ( 'NONE',  ( 3.491481338843133355E-15, -1.219242935835426903E-16, 1.000000000000000000 ) ) ;
#117 = CALENDAR_DATE ( 2021, 1, 11 ) ;
#118 = APPROVAL_DATE_TIME ( #25, #177 ) ;
#119 = VERTEX_POINT ( 'NONE', #60 ) ;
#120 = CARTESIAN_POINT ( 'NONE',  ( 0.0000000000000000000, 0.0000000000000000000, 0.0000000000000000000 ) ) ;
#121 = ORIENTED_EDGE ( 'NONE', *, *, #2, .T. ) ;
#122 = CIRCLE ( 'NONE', #48, 1.499999999999993783 ) ;
#123 = APPROVAL_DATE_TIME ( #150, #125 ) ;
#124 = APPROVAL_DATE_TIME ( #214, #64 ) ;
#125 = APPROVAL ( #29, 'UNSPECIFIED' ) ;
#126 = ORIENTED_EDGE ( 'NONE', *, *, #164, .F. ) ;
#127 = EDGE_LOOP ( 'NONE', ( #18 ) ) ;
#128 = APPROVAL_PERSON_ORGANIZATION ( #174, #64, #215 ) ;
#129 = CYLINDRICAL_SURFACE ( 'NONE', #139, 0.2500000000000001665 ) ;
#130 = CARTESIAN_POINT ( 'NONE',  ( -1.282754905350004587E-30, 4.499298539707956128E-32, -3.673956068672651857E-16 ) ) ;
#131 = PLANE ( 'NONE',  #155 ) ;
#132 = LOCAL_TIME ( 10, 45, 28.00000000000000000, #171 ) ;
#133 = CC_DESIGN_APPROVAL ( #64, ( #230 ) ) ;
#134 = DIRECTION ( 'NONE',  ( 0.0000000000000000000, 1.000000000000000000, 0.0000000000000000000 ) ) ;
#135 = DIRECTION ( 'NONE',  ( -3.491481338843133355E-15, 1.224646799147353207E-16, -1.000000000000000000 ) ) ;
#136 = CARTESIAN_POINT ( 'NONE',  ( 3.491481338843130200E-15, -0.2500000000000004441, 0.9999999999999991118 ) ) ;
#137 = PERSON_AND_ORGANIZATION ( #153, #196 ) ;
#138 = APPLICATION_CONTEXT ( 'configuration controlled 3d designs of mechanical parts and assemblies' ) ;
#139 = AXIS2_PLACEMENT_3D ( 'NONE', #36, #110, #9 ) ;
#140 = VERTEX_POINT ( 'NONE', #149 ) ;
#141 = COORDINATED_UNIVERSAL_TIME_OFFSET ( 1, 0, .AHEAD. ) ;
#142 = AXIS2_PLACEMENT_3D ( 'NONE', #20, #57, #134 ) ;
#143 = CC_DESIGN_DATE_AND_TIME_ASSIGNMENT ( #14, #52, ( #230 ) ) ;
#144 = AXIS2_PLACEMENT_3D ( 'NONE', #37, #135, #89 ) ;
#145 = DIRECTION ( 'NONE',  ( 3.491481338843133355E-15, -1.224646799147353207E-16, 1.000000000000000000 ) ) ;
#146 = DIRECTION ( 'NONE',  ( -4.275831445896958607E-31, -1.000000000000000000, -1.224646799147353207E-16 ) ) ;
#147 = CARTESIAN_POINT ( 'NONE',  ( 3.372917375396339248E-14, -1.177839800361401499E-15, 9.660419312204947317 ) ) ;
#148 = EDGE_CURVE ( 'NONE', #100, #100, #122, .T. ) ;
#149 = CARTESIAN_POINT ( 'NONE',  ( 1.326762908760390423E-13, 1.199999999999989297, 38.00000000000000000 ) ) ;
#150 = DATE_AND_TIME ( #7, #132 ) ;
#151 = CC_DESIGN_APPROVAL ( #177, ( #161 ) ) ;
#152 =( NAMED_UNIT ( * ) PLANE_ANGLE_UNIT ( ) SI_UNIT ( $, .RADIAN. ) );
#153 = PERSON ( 'UNSPECIFIED', 'UNSPECIFIED', 'UNSPECIFIED', ('UNSPECIFIED'), ('UNSPECIFIED'), ('UNSPECIFIED') ) ;
#154 = CARTESIAN_POINT ( 'NONE',  ( -3.419732725483833462E-30, -0.2500000000000000000, -9.794503803984034527E-16 ) ) ;
#155 = AXIS2_PLACEMENT_3D ( 'NONE', #130, #145, #201 ) ;
#156 = SHAPE_DEFINITION_REPRESENTATION ( #226, #228 ) ;
#157 = EDGE_LOOP ( 'NONE', ( #108 ) ) ;
#158 = CC_DESIGN_PERSON_AND_ORGANIZATION_ASSIGNMENT ( #102, #234, ( #230 ) ) ;
#159 = PERSON_AND_ORGANIZATION_ROLE ( 'design_supplier' ) ;
#160 = ORIENTED_EDGE ( 'NONE', *, *, #218, .T. ) ;
#161 = PRODUCT_DEFINITION ( 'UNKNOWN', '', #96, #74 ) ;
#162 = PLANE ( 'NONE',  #167 ) ;
#163 = DIRECTION ( 'NONE',  ( -3.491481338843133355E-15, 1.224646799147353207E-16, -1.000000000000000000 ) ) ;
#164 = EDGE_CURVE ( 'NONE', #119, #119, #223, .T. ) ;
#165 = CARTESIAN_POINT ( 'NONE',  ( 0.0000000000000000000, 0.0000000000000000000, 0.0000000000000000000 ) ) ;
#166 = CARTESIAN_POINT ( 'NONE',  ( 3.491481338843131778E-15, -2.891205793294685722E-16, 0.9999999999999995559 ) ) ;
#167 = AXIS2_PLACEMENT_3D ( 'NONE', #203, #113, #114 ) ;
#168 = CC_DESIGN_SECURITY_CLASSIFICATION ( #230, ( #96 ) ) ;
#169 = DIRECTION ( 'NONE',  ( 0.0000000000000000000, 1.000000000000000000, 0.0000000000000000000 ) ) ;
#170 = VERTEX_POINT ( 'NONE', #154 ) ;
#171 = COORDINATED_UNIVERSAL_TIME_OFFSET ( 1, 0, .AHEAD. ) ;
#172 = LOCAL_TIME ( 10, 45, 28.00000000000000000, #141 ) ;
#173 = PERSON_AND_ORGANIZATION ( #153, #196 ) ;
#174 = PERSON_AND_ORGANIZATION ( #153, #196 ) ;
#175 = EDGE_LOOP ( 'NONE', ( #126 ) ) ;
#176 = AXIS2_PLACEMENT_3D ( 'NONE', #243, #200, #95 ) ;
#177 = APPROVAL ( #45, 'UNSPECIFIED' ) ;
#178 = CLOSED_SHELL ( 'NONE', ( #42, #101, #94, #68, #208, #181 ) ) ;
#179 = SECURITY_CLASSIFICATION_LEVEL ( 'unclassified' ) ;
#180 = EDGE_LOOP ( 'NONE', ( #216 ) ) ;
#181 = ADVANCED_FACE ( 'NONE', ( #93 ), #220, .F. ) ;
#182 = PERSON_AND_ORGANIZATION_ROLE ( 'creator' ) ;
#183 = ORIENTED_EDGE ( 'NONE', *, *, #239, .T. ) ;
#184 = DIRECTION ( 'NONE',  ( 3.491481338843133355E-15, -1.219242935835426903E-16, 1.000000000000000000 ) ) ;
#185 = FACE_BOUND ( 'NONE', #15, .T. ) ;
#186 = AXIS2_PLACEMENT_3D ( 'NONE', #78, #184, #241 ) ;
#187 = FACE_OUTER_BOUND ( 'NONE', #238, .T. ) ;
#188 = UNCERTAINTY_MEASURE_WITH_UNIT (LENGTH_MEASURE( 1.000000000000000082E-05 ), #47, 'distance_accuracy_value', 'NONE');
#189 = DIRECTION ( 'NONE',  ( 0.0000000000000000000, -1.000000000000000000, 0.0000000000000000000 ) ) ;
#190 = PLANE ( 'NONE',  #8 ) ;
#191 = CARTESIAN_POINT ( 'NONE',  ( 3.491481338843130200E-15, -0.2500000000000004441, 0.9999999999999991118 ) ) ;
#192 = PERSON_AND_ORGANIZATION ( #153, #196 ) ;
#193 = DIRECTION ( 'NONE',  ( 0.0000000000000000000, 0.0000000000000000000, 1.000000000000000000 ) ) ;
#194 =( NAMED_UNIT ( * ) SI_UNIT ( $, .STERADIAN. ) SOLID_ANGLE_UNIT ( ) );
#195 = PERSON_AND_ORGANIZATION_ROLE ( 'creator' ) ;
#196 = ORGANIZATION ( 'UNSPECIFIED', 'UNSPECIFIED', '' ) ;
#197 = EDGE_LOOP ( 'NONE', ( #33 ) ) ;
#198 = EDGE_LOOP ( 'NONE', ( #34 ) ) ;
#199 = LOCAL_TIME ( 10, 45, 28.00000000000000000, #63 ) ;
#200 = DIRECTION ( 'NONE',  ( -3.491481338843133355E-15, 1.219242935835426903E-16, -1.000000000000000000 ) ) ;
#201 = DIRECTION ( 'NONE',  ( -4.275831445896958607E-31, -1.000000000000000000, -1.224646799147353207E-16 ) ) ;
#202 = FACE_OUTER_BOUND ( 'NONE', #87, .T. ) ;
#203 = CARTESIAN_POINT ( 'NONE',  ( 3.491481338843131778E-15, -2.891205793294685722E-16, 0.9999999999999995559 ) ) ;
#204 = DIRECTION ( 'NONE',  ( 0.0000000000000000000, -1.000000000000000000, 0.0000000000000000000 ) ) ;
#205 = MECHANICAL_CONTEXT ( 'NONE', #12, 'mechanical' ) ;
#206 = AXIS2_PLACEMENT_3D ( 'NONE', #166, #72, #146 ) ;
#207 = APPLICATION_PROTOCOL_DEFINITION ( 'international standard', 'config_control_design', 1994, #138 ) ;
#208 = ADVANCED_FACE ( 'NONE', ( #187, #3 ), #103, .F. ) ;
#209 = CARTESIAN_POINT ( 'NONE',  ( 5.298805071068388947E-15, -0.3181483474218605445, 1.517638090205028378 ) ) ;
#210 = DATE_AND_TIME ( #31, #172 ) ;
#211 = CIRCLE ( 'NONE', #144, 1.199999999999993738 ) ;
#212 = DIRECTION ( 'NONE',  ( 1.000000000000000000, 0.0000000000000000000, 0.0000000000000000000 ) ) ;
#213 = PRODUCT ( '36230', '36230', '', ( #205 ) ) ;
#214 = DATE_AND_TIME ( #237, #236 ) ;
#215 = APPROVAL_ROLE ( '' ) ;
#216 = ORIENTED_EDGE ( 'NONE', *, *, #30, .F. ) ;
#217 = FACE_OUTER_BOUND ( 'NONE', #51, .T. ) ;
#218 = EDGE_CURVE ( 'NONE', #80, #80, #112, .T. ) ;
#219 = FACE_OUTER_BOUND ( 'NONE', #175, .T. ) ;
#220 = PLANE ( 'NONE',  #206 ) ;
#221 = FACE_BOUND ( 'NONE', #106, .T. ) ;
#222 = CIRCLE ( 'NONE', #13, 0.2500000000000003331 ) ;
#223 = CIRCLE ( 'NONE', #176, 1.499999999999991562 ) ;
#224 = ADVANCED_FACE ( 'NONE', ( #217, #54 ), #129, .T. ) ;
#225 = CARTESIAN_POINT ( 'NONE',  ( 5.298805071068388947E-15, -1.850369520637249153E-16, 1.517638090205028378 ) ) ;
#226 = PRODUCT_DEFINITION_SHAPE ( 'NONE', 'NONE',  #161 ) ;
#227 = DIRECTION ( 'NONE',  ( 3.491481338843133355E-15, -1.219242935835426903E-16, 1.000000000000000000 ) ) ;
#228 = ADVANCED_BREP_SHAPE_REPRESENTATION ( '36230', ( #233, #232, #90 ), #4 ) ;
#229 = APPLICATION_PROTOCOL_DEFINITION ( 'international standard', 'config_control_design', 1994, #12 ) ;
#230 = SECURITY_CLASSIFICATION ( '', '', #179 ) ;
#231 = COORDINATED_UNIVERSAL_TIME_OFFSET ( 1, 0, .AHEAD. ) ;
#232 = MANIFOLD_SOLID_BREP ( 'Corps-Déplacer/Copier1[2]', #46 ) ;
#233 = MANIFOLD_SOLID_BREP ( 'Corps-Déplacer/Copier1[1]', #178 ) ;
#234 = PERSON_AND_ORGANIZATION_ROLE ( 'classification_officer' ) ;
#235 = APPROVAL_PERSON_ORGANIZATION ( #173, #125, #97 ) ;
#236 = LOCAL_TIME ( 10, 45, 28.00000000000000000, #67 ) ;
#237 = CALENDAR_DATE ( 2021, 1, 11 ) ;
#238 = EDGE_LOOP ( 'NONE', ( #85 ) ) ;
#239 = EDGE_CURVE ( 'NONE', #170, #170, #77, .T. ) ;
#240 = CARTESIAN_POINT ( 'NONE',  ( 3.491481338843130200E-15, -1.219242935835425917E-16, 0.9999999999999991118 ) ) ;
#241 = DIRECTION ( 'NONE',  ( -4.319447003640437456E-31, -1.000000000000000000, -1.219242935835426903E-16 ) ) ;
#242 = AXIS2_PLACEMENT_3D ( 'NONE', #225, #59, #204 ) ;
#243 = CARTESIAN_POINT ( 'NONE',  ( 2.069878800372186153E-14, -7.228121420306639641E-16, 5.928368504635970204 ) ) ;
ENDSEC;
END-ISO-10303-21;
