ISO-10303-21;
HEADER;
FILE_DESCRIPTION (( 'STEP AP203' ),
    '1' );
FILE_NAME ('36199.step',
    '2021-11-09T08:46:34',
    ( '' ),
    ( '' ),
    'SwSTEP 2.0',
    'SolidWorks 2019',
    '' );
FILE_SCHEMA (( 'CONFIG_CONTROL_DESIGN' ));
ENDSEC;

DATA;
#1 = ORGANIZATION ( 'UNSPECIFIED', 'UNSPECIFIED', '' ) ;
#2 = PERSON_AND_ORGANIZATION_ROLE ( 'creator' ) ;
#3 = DATE_AND_TIME ( #19, #14 ) ;
#4 = AXIS2_PLACEMENT_3D ( 'NONE', #221, #45, #138 ) ;
#5 = SECURITY_CLASSIFICATION_LEVEL ( 'unclassified' ) ;
#6 = TOROIDAL_SURFACE ( 'NONE', #24, 9.249999999999992895, 8.000000000000000000 ) ;
#7 = PERSON_AND_ORGANIZATION ( #96, #1 ) ;
#8 = EDGE_CURVE ( 'NONE', #51, #51, #136, .T. ) ;
#9 = ORIENTED_EDGE ( 'NONE', *, *, #118, .T. ) ;
#10 = FACE_OUTER_BOUND ( 'NONE', #150, .T. ) ;
#11 = DIRECTION ( 'NONE',  ( 0.0000000000000000000, 1.000000000000000000, 0.0000000000000000000 ) ) ;
#12 = CARTESIAN_POINT ( 'NONE',  ( 1.326762908760390423E-13, 8.998558695971051224E-33, 38.00000000000000000 ) ) ;
#13 = DIRECTION ( 'NONE',  ( 3.491481338843133355E-15, -1.235943513693574240E-16, 1.000000000000000000 ) ) ;
#14 = LOCAL_TIME ( 9, 46, 34.00000000000000000, #191 ) ;
#15 =( NAMED_UNIT ( * ) PLANE_ANGLE_UNIT ( ) SI_UNIT ( $, .RADIAN. ) );
#16 = ADVANCED_FACE ( 'NONE', ( #139 ), #203, .F. ) ;
#17 = MANIFOLD_SOLID_BREP ( 'Corps-Déplacer/Copier1[2]', #90 ) ;
#18 = DIRECTION ( 'NONE',  ( 0.0000000000000000000, 0.0000000000000000000, 1.000000000000000000 ) ) ;
#19 = CALENDAR_DATE ( 2021, 9, 11 ) ;
#20 = AXIS2_PLACEMENT_3D ( 'NONE', #170, #189, #64 ) ;
#21 = APPROVAL_ROLE ( '' ) ;
#22 = DATE_AND_TIME ( #53, #26 ) ;
#23 = EDGE_CURVE ( 'NONE', #108, #108, #29, .T. ) ;
#24 = AXIS2_PLACEMENT_3D ( 'NONE', #185, #140, #30 ) ;
#25 = APPROVAL ( #147, 'UNSPECIFIED' ) ;
#26 = LOCAL_TIME ( 9, 46, 34.00000000000000000, #114 ) ;
#27 = EDGE_LOOP ( 'NONE', ( #80 ) ) ;
#28 = DIRECTION ( 'NONE',  ( 0.0000000000000000000, 1.000000000000000000, 0.0000000000000000000 ) ) ;
#29 = CIRCLE ( 'NONE', #125, 1.249999999999993783 ) ;
#30 = DIRECTION ( 'NONE',  ( -4.376851208193755231E-31, -1.000000000000000000, -1.235943513693574240E-16 ) ) ;
#31 = CC_DESIGN_PERSON_AND_ORGANIZATION_ASSIGNMENT ( #180, #148, ( #95 ) ) ;
#32 = PLANE ( 'NONE',  #39 ) ;
#33 = FACE_OUTER_BOUND ( 'NONE', #117, .T. ) ;
#34 = DIRECTION ( 'NONE',  ( -4.315273713925326938E-31, -1.000000000000000000, -1.235943513693574240E-16 ) ) ;
#35 = PERSON_AND_ORGANIZATION_ROLE ( 'design_owner' ) ;
#36 = VERTEX_POINT ( 'NONE', #190 ) ;
#37 = CLOSED_SHELL ( 'NONE', ( #162, #97, #215, #142, #41 ) ) ;
#38 = CC_DESIGN_PERSON_AND_ORGANIZATION_ASSIGNMENT ( #113, #35, ( #109 ) ) ;
#39 = AXIS2_PLACEMENT_3D ( 'NONE', #12, #211, #177 ) ;
#40 = ORIENTED_EDGE ( 'NONE', *, *, #8, .F. ) ;
#41 = ADVANCED_FACE ( 'NONE', ( #220 ), #43, .F. ) ;
#42 = EDGE_LOOP ( 'NONE', ( #100 ) ) ;
#43 = PLANE ( 'NONE',  #143 ) ;
#44 = CARTESIAN_POINT ( 'NONE',  ( 3.491481338843132724E-14, -1.235943513693574043E-15, 9.999999999999998224 ) ) ;
#45 = DIRECTION ( 'NONE',  ( 3.491481338843133355E-15, -1.235943513693574240E-16, 1.000000000000000000 ) ) ;
#46 = DIRECTION ( 'NONE',  ( -4.275831445896958607E-31, -1.000000000000000000, -1.224646799147353207E-16 ) ) ;
#47 = CARTESIAN_POINT ( 'NONE',  ( 6.364444333809941369E-31, -3.766501824874605429E-32, 1.822849305538243351E-16 ) ) ;
#48 = CARTESIAN_POINT ( 'NONE',  ( 0.0000000000000000000, 0.0000000000000000000, 0.0000000000000000000 ) ) ;
#49 = AXIS2_PLACEMENT_3D ( 'NONE', #106, #223, #167 ) ;
#50 = DIRECTION ( 'NONE',  ( 1.000000000000000000, 0.0000000000000000000, 0.0000000000000000000 ) ) ;
#51 = VERTEX_POINT ( 'NONE', #145 ) ;
#52 = ADVANCED_FACE ( 'NONE', ( #156 ), #137, .T. ) ;
#53 = CALENDAR_DATE ( 2021, 9, 11 ) ;
#54 = PERSON_AND_ORGANIZATION_ROLE ( 'creator' ) ;
#55 = EDGE_LOOP ( 'NONE', ( #58 ) ) ;
#56 = ORIENTED_EDGE ( 'NONE', *, *, #23, .F. ) ;
#57 = CC_DESIGN_APPROVAL ( #25, ( #98 ) ) ;
#58 = ORIENTED_EDGE ( 'NONE', *, *, #8, .T. ) ;
#59 = EDGE_LOOP ( 'NONE', ( #124 ) ) ;
#60 = COORDINATED_UNIVERSAL_TIME_OFFSET ( 1, 0, .AHEAD. ) ;
#61 = EDGE_LOOP ( 'NONE', ( #151 ) ) ;
#62 = AXIS2_PLACEMENT_3D ( 'NONE', #86, #183, #28 ) ;
#63 = FACE_BOUND ( 'NONE', #164, .T. ) ;
#64 = DIRECTION ( 'NONE',  ( 4.275831445896958607E-31, 1.000000000000000000, 1.224646799147353207E-16 ) ) ;
#65 = DIRECTION ( 'NONE',  ( 3.491481338843133355E-15, -1.224646799147353207E-16, 1.000000000000000000 ) ) ;
#66 = CIRCLE ( 'NONE', #62, 1.199999999999996403 ) ;
#67 = DIRECTION ( 'NONE',  ( 0.0000000000000000000, 1.000000000000000000, 0.0000000000000000000 ) ) ;
#68 = APPLICATION_CONTEXT ( 'configuration controlled 3d designs of mechanical parts and assemblies' ) ;
#69 = EDGE_CURVE ( 'NONE', #172, #172, #158, .T. ) ;
#70 = MECHANICAL_CONTEXT ( 'NONE', #68, 'mechanical' ) ;
#71 = CIRCLE ( 'NONE', #4, 1.249999999999993783 ) ;
#72 = COORDINATED_UNIVERSAL_TIME_OFFSET ( 1, 0, .AHEAD. ) ;
#73 = CC_DESIGN_PERSON_AND_ORGANIZATION_ASSIGNMENT ( #196, #134, ( #98 ) ) ;
#74 = VERTEX_POINT ( 'NONE', #157 ) ;
#75 = PERSON_AND_ORGANIZATION ( #96, #1 ) ;
#76 = EDGE_LOOP ( 'NONE', ( #166 ) ) ;
#77 = APPROVAL_ROLE ( '' ) ;
#78 = AXIS2_PLACEMENT_3D ( 'NONE', #48, #18, #50 ) ;
#79 = DATE_AND_TIME ( #81, #186 ) ;
#80 = ORIENTED_EDGE ( 'NONE', *, *, #23, .T. ) ;
#81 = CALENDAR_DATE ( 2021, 9, 11 ) ;
#82 = APPLICATION_CONTEXT ( 'configuration controlled 3d designs of mechanical parts and assemblies' ) ;
#83 = DESIGN_CONTEXT ( 'detailed design', #82, 'design' ) ;
#84 = LOCAL_TIME ( 9, 46, 34.00000000000000000, #72 ) ;
#85 = FACE_OUTER_BOUND ( 'NONE', #61, .T. ) ;
#86 = CARTESIAN_POINT ( 'NONE',  ( 1.326762908760390423E-13, -4.653657836759941941E-15, 38.00000000000000000 ) ) ;
#87 = CYLINDRICAL_SURFACE ( 'NONE', #165, 1.249999999999993339 ) ;
#88 = DIRECTION ( 'NONE',  ( 0.0000000000000000000, -1.000000000000000000, 0.0000000000000000000 ) ) ;
#89 = APPLICATION_PROTOCOL_DEFINITION ( 'international standard', 'config_control_design', 1994, #68 ) ;
#90 = CLOSED_SHELL ( 'NONE', ( #52, #102, #16 ) ) ;
#91 = CC_DESIGN_PERSON_AND_ORGANIZATION_ASSIGNMENT ( #214, #54, ( #98 ) ) ;
#92 = APPROVAL_DATE_TIME ( #3, #146 ) ;
#93 = APPROVAL_DATE_TIME ( #22, #25 ) ;
#94 = APPROVAL_STATUS ( 'not_yet_approved' ) ;
#95 = SECURITY_CLASSIFICATION ( '', '', #5 ) ;
#96 = PERSON ( 'UNSPECIFIED', 'UNSPECIFIED', 'UNSPECIFIED', ('UNSPECIFIED'), ('UNSPECIFIED'), ('UNSPECIFIED') ) ;
#97 = ADVANCED_FACE ( 'NONE', ( #33, #63 ), #206, .T. ) ;
#98 = PRODUCT_DEFINITION_FORMATION_WITH_SPECIFIED_SOURCE ( 'ANY', '', #109, .NOT_KNOWN. ) ;
#99 = APPROVAL_DATE_TIME ( #199, #201 ) ;
#100 = ORIENTED_EDGE ( 'NONE', *, *, #69, .T. ) ;
#101 = ORIENTED_EDGE ( 'NONE', *, *, #194, .F. ) ;
#102 = ADVANCED_FACE ( 'NONE', ( #10, #120 ), #87, .T. ) ;
#103 = FACE_OUTER_BOUND ( 'NONE', #132, .T. ) ;
#104 = DIRECTION ( 'NONE',  ( 3.491481338843133355E-15, -1.224646799147353207E-16, 1.000000000000000000 ) ) ;
#105 = CARTESIAN_POINT ( 'NONE',  ( -8.551680453529350800E-31, 2.999525725151307090E-32, -2.449298628175645296E-16 ) ) ;
#106 = CARTESIAN_POINT ( 'NONE',  ( 4.184300688578271298E-14, -1.481193451575317248E-15, 11.98431348329845747 ) ) ;
#107 = CC_DESIGN_DATE_AND_TIME_ASSIGNMENT ( #192, #176, ( #184 ) ) ;
#108 = VERTEX_POINT ( 'NONE', #130 ) ;
#109 = PRODUCT ( '36199', '36199', '', ( #70 ) ) ;
#110 = PRODUCT_RELATED_PRODUCT_CATEGORY ( 'detail', '', ( #109 ) ) ;
#111 = APPROVAL_STATUS ( 'not_yet_approved' ) ;
#112 = APPROVAL_PERSON_ORGANIZATION ( #173, #146, #127 ) ;
#113 = PERSON_AND_ORGANIZATION ( #96, #1 ) ;
#114 = COORDINATED_UNIVERSAL_TIME_OFFSET ( 1, 0, .AHEAD. ) ;
#115 = DATE_TIME_ROLE ( 'classification_date' ) ;
#116 = ADVANCED_BREP_SHAPE_REPRESENTATION ( '36199', ( #171, #17, #78 ), #195 ) ;
#117 = EDGE_LOOP ( 'NONE', ( #40 ) ) ;
#118 = EDGE_CURVE ( 'NONE', #36, #36, #66, .T. ) ;
#119 = CARTESIAN_POINT ( 'NONE',  ( 3.491481338843133355E-14, 1.124819836996386774E-32, 10.00000000000000000 ) ) ;
#120 = FACE_OUTER_BOUND ( 'NONE', #163, .T. ) ;
#121 = AXIS2_PLACEMENT_3D ( 'NONE', #119, #219, #46 ) ;
#122 = FACE_OUTER_BOUND ( 'NONE', #59, .T. ) ;
#123 = CARTESIAN_POINT ( 'NONE',  ( 1.326762908760390423E-13, -4.653657836759941941E-15, 38.00000000000000000 ) ) ;
#124 = ORIENTED_EDGE ( 'NONE', *, *, #118, .F. ) ;
#125 = AXIS2_PLACEMENT_3D ( 'NONE', #44, #13, #88 ) ;
#126 = PRODUCT_DEFINITION_SHAPE ( 'NONE', 'NONE',  #184 ) ;
#127 = APPROVAL_ROLE ( '' ) ;
#128 = LOCAL_TIME ( 9, 46, 34.00000000000000000, #60 ) ;
#129 =( NAMED_UNIT ( * ) SI_UNIT ( $, .STERADIAN. ) SOLID_ANGLE_UNIT ( ) );
#130 = CARTESIAN_POINT ( 'NONE',  ( 3.491481338843132724E-14, -1.249999999999995115, 9.999999999999998224 ) ) ;
#131 = COORDINATED_UNIVERSAL_TIME_OFFSET ( 1, 0, .AHEAD. ) ;
#132 = EDGE_LOOP ( 'NONE', ( #200 ) ) ;
#133 = AXIS2_PLACEMENT_3D ( 'NONE', #169, #188, #11 ) ;
#134 = PERSON_AND_ORGANIZATION_ROLE ( 'design_supplier' ) ;
#135 = EDGE_LOOP ( 'NONE', ( #101 ) ) ;
#136 = CIRCLE ( 'NONE', #133, 1.499999999999996669 ) ;
#137 = PLANE ( 'NONE',  #121 ) ;
#138 = DIRECTION ( 'NONE',  ( 0.0000000000000000000, -1.000000000000000000, 0.0000000000000000000 ) ) ;
#139 = FACE_OUTER_BOUND ( 'NONE', #135, .T. ) ;
#140 = DIRECTION ( 'NONE',  ( 3.491481338843133355E-15, -1.235943513693574240E-16, 1.000000000000000000 ) ) ;
#141 = DIRECTION ( 'NONE',  ( -4.275831445896958607E-31, -1.000000000000000000, -1.224646799147353207E-16 ) ) ;
#142 = ADVANCED_FACE ( 'NONE', ( #103, #85 ), #6, .F. ) ;
#143 = AXIS2_PLACEMENT_3D ( 'NONE', #152, #104, #205 ) ;
#144 = CALENDAR_DATE ( 2021, 9, 11 ) ;
#145 = CARTESIAN_POINT ( 'NONE',  ( 1.316288464743861212E-13, 1.499999999999992228, 37.69999999999999574 ) ) ;
#146 = APPROVAL ( #111, 'UNSPECIFIED' ) ;
#147 = APPROVAL_STATUS ( 'not_yet_approved' ) ;
#148 = PERSON_AND_ORGANIZATION_ROLE ( 'classification_officer' ) ;
#149 = CC_DESIGN_PERSON_AND_ORGANIZATION_ASSIGNMENT ( #159, #2, ( #184 ) ) ;
#150 = EDGE_LOOP ( 'NONE', ( #217 ) ) ;
#151 = ORIENTED_EDGE ( 'NONE', *, *, #69, .F. ) ;
#152 = CARTESIAN_POINT ( 'NONE',  ( 3.491481338843133355E-14, 1.124819836996386774E-32, 10.00000000000000000 ) ) ;
#153 = CIRCLE ( 'NONE', #175, 1.249999999999992895 ) ;
#154 = CYLINDRICAL_SURFACE ( 'NONE', #20, 1.499999999999995337 ) ;
#155 = DIRECTION ( 'NONE',  ( 3.491481338843133355E-15, -1.235943513693574240E-16, 1.000000000000000000 ) ) ;
#156 = FACE_OUTER_BOUND ( 'NONE', #27, .T. ) ;
#157 = CARTESIAN_POINT ( 'NONE',  ( 9.703521914033135689E-32, -1.249999999999992895, 2.779199134212841788E-17 ) ) ;
#158 = CIRCLE ( 'NONE', #49, 1.499999999999996003 ) ;
#159 = PERSON_AND_ORGANIZATION ( #96, #1 ) ;
#160 = CARTESIAN_POINT ( 'NONE',  ( 4.184300688578271298E-14, -1.499999999999997335, 11.98431348329845747 ) ) ;
#161 = AXIS2_PLACEMENT_3D ( 'NONE', #105, #65, #141 ) ;
#162 = ADVANCED_FACE ( 'NONE', ( #187, #207 ), #154, .T. ) ;
#163 = EDGE_LOOP ( 'NONE', ( #56 ) ) ;
#164 = EDGE_LOOP ( 'NONE', ( #9 ) ) ;
#165 = AXIS2_PLACEMENT_3D ( 'NONE', #168, #204, #209 ) ;
#166 = ORIENTED_EDGE ( 'NONE', *, *, #208, .F. ) ;
#167 = DIRECTION ( 'NONE',  ( 0.0000000000000000000, -1.000000000000000000, 0.0000000000000000000 ) ) ;
#168 = CARTESIAN_POINT ( 'NONE',  ( -4.275743254511121536E-31, 0.0000000000000000000, -1.224621540130541035E-16 ) ) ;
#169 = CARTESIAN_POINT ( 'NONE',  ( 1.316288464743861212E-13, -4.616918432785521081E-15, 37.69999999999999574 ) ) ;
#170 = CARTESIAN_POINT ( 'NONE',  ( 0.0000000000000000000, 0.0000000000000000000, 0.0000000000000000000 ) ) ;
#171 = MANIFOLD_SOLID_BREP ( 'Corps-Déplacer/Copier1[1]', #37 ) ;
#172 = VERTEX_POINT ( 'NONE', #160 ) ;
#173 = PERSON_AND_ORGANIZATION ( #96, #1 ) ;
#174 = VERTEX_POINT ( 'NONE', #193 ) ;
#175 = AXIS2_PLACEMENT_3D ( 'NONE', #47, #155, #34 ) ;
#176 = DATE_TIME_ROLE ( 'creation_date' ) ;
#177 = DIRECTION ( 'NONE',  ( 4.275831445896958607E-31, 1.000000000000000000, 1.224646799147353207E-16 ) ) ;
#178 = APPROVAL_PERSON_ORGANIZATION ( #75, #25, #21 ) ;
#179 = SHAPE_DEFINITION_REPRESENTATION ( #126, #116 ) ;
#180 = PERSON_AND_ORGANIZATION ( #96, #1 ) ;
#181 = UNCERTAINTY_MEASURE_WITH_UNIT (LENGTH_MEASURE( 1.000000000000000082E-05 ), #210, 'distance_accuracy_value', 'NONE');
#182 = CC_DESIGN_APPROVAL ( #201, ( #95 ) ) ;
#183 = DIRECTION ( 'NONE',  ( -3.491481338843133355E-15, 1.224646799147353207E-16, -1.000000000000000000 ) ) ;
#184 = PRODUCT_DEFINITION ( 'UNKNOWN', '', #98, #83 ) ;
#185 = CARTESIAN_POINT ( 'NONE',  ( 3.491481338843132724E-14, -1.734723475976807094E-15, 9.999999999999998224 ) ) ;
#186 = LOCAL_TIME ( 9, 46, 34.00000000000000000, #131 ) ;
#187 = FACE_OUTER_BOUND ( 'NONE', #55, .T. ) ;
#188 = DIRECTION ( 'NONE',  ( -3.491481338843133355E-15, 1.224646799147353207E-16, -1.000000000000000000 ) ) ;
#189 = DIRECTION ( 'NONE',  ( -3.491481338843133355E-15, 1.224646799147353207E-16, -1.000000000000000000 ) ) ;
#190 = CARTESIAN_POINT ( 'NONE',  ( 1.326762908760390423E-13, 1.199999999999991962, 38.00000000000000000 ) ) ;
#191 = COORDINATED_UNIVERSAL_TIME_OFFSET ( 1, 0, .AHEAD. ) ;
#192 = DATE_AND_TIME ( #144, #84 ) ;
#193 = CARTESIAN_POINT ( 'NONE',  ( 3.491481338843132724E-14, -1.249999999999995115, 9.999999999999998224 ) ) ;
#194 = EDGE_CURVE ( 'NONE', #74, #74, #153, .T. ) ;
#195 =( GEOMETRIC_REPRESENTATION_CONTEXT ( 3 ) GLOBAL_UNCERTAINTY_ASSIGNED_CONTEXT ( ( #181 ) ) GLOBAL_UNIT_ASSIGNED_CONTEXT ( ( #210, #15, #129 ) ) REPRESENTATION_CONTEXT ( 'NONE', 'WORKASPACE' ) );
#196 = PERSON_AND_ORGANIZATION ( #96, #1 ) ;
#197 = CALENDAR_DATE ( 2021, 9, 11 ) ;
#198 = CC_DESIGN_DATE_AND_TIME_ASSIGNMENT ( #79, #115, ( #95 ) ) ;
#199 = DATE_AND_TIME ( #197, #128 ) ;
#200 = ORIENTED_EDGE ( 'NONE', *, *, #208, .T. ) ;
#201 = APPROVAL ( #94, 'UNSPECIFIED' ) ;
#202 = CC_DESIGN_APPROVAL ( #146, ( #184 ) ) ;
#203 = PLANE ( 'NONE',  #161 ) ;
#204 = DIRECTION ( 'NONE',  ( 3.491481338843133355E-15, -1.235943513693574240E-16, 1.000000000000000000 ) ) ;
#205 = DIRECTION ( 'NONE',  ( -4.275831445896958607E-31, -1.000000000000000000, -1.224646799147353207E-16 ) ) ;
#206 = CONICAL_SURFACE ( 'NONE', #213, 1.199999999999996403, 0.7853981633974461696 ) ;
#207 = FACE_OUTER_BOUND ( 'NONE', #42, .T. ) ;
#208 = EDGE_CURVE ( 'NONE', #174, #174, #71, .T. ) ;
#209 = DIRECTION ( 'NONE',  ( -4.315273713925326938E-31, -1.000000000000000000, -1.235943513693574240E-16 ) ) ;
#210 =( LENGTH_UNIT ( ) NAMED_UNIT ( * ) SI_UNIT ( .MILLI., .METRE. ) );
#211 = DIRECTION ( 'NONE',  ( -3.491481338843133355E-15, 1.224646799147353207E-16, -1.000000000000000000 ) ) ;
#212 = APPLICATION_PROTOCOL_DEFINITION ( 'international standard', 'config_control_design', 1994, #82 ) ;
#213 = AXIS2_PLACEMENT_3D ( 'NONE', #123, #222, #67 ) ;
#214 = PERSON_AND_ORGANIZATION ( #96, #1 ) ;
#215 = ADVANCED_FACE ( 'NONE', ( #122 ), #32, .F. ) ;
#216 = CC_DESIGN_SECURITY_CLASSIFICATION ( #95, ( #98 ) ) ;
#217 = ORIENTED_EDGE ( 'NONE', *, *, #194, .T. ) ;
#218 = APPROVAL_PERSON_ORGANIZATION ( #7, #201, #77 ) ;
#219 = DIRECTION ( 'NONE',  ( 3.491481338843133355E-15, -1.224646799147353207E-16, 1.000000000000000000 ) ) ;
#220 = FACE_OUTER_BOUND ( 'NONE', #76, .T. ) ;
#221 = CARTESIAN_POINT ( 'NONE',  ( 3.491481338843132724E-14, -1.235943513693574043E-15, 9.999999999999998224 ) ) ;
#222 = DIRECTION ( 'NONE',  ( -3.491481338843133355E-15, 1.224646799147353207E-16, -1.000000000000000000 ) ) ;
#223 = DIRECTION ( 'NONE',  ( 3.491481338843133355E-15, -1.235943513693574240E-16, 1.000000000000000000 ) ) ;
ENDSEC;
END-ISO-10303-21;
