ISO-10303-21;
HEADER;
FILE_DESCRIPTION (( 'STEP AP203' ),
    '1' );
FILE_NAME ('36052.step',
    '2021-12-06T12:59:19',
    ( '' ),
    ( '' ),
    'SwSTEP 2.0',
    'SolidWorks 2019',
    '' );
FILE_SCHEMA (( 'CONFIG_CONTROL_DESIGN' ));
ENDSEC;

DATA;
#1 = AXIS2_PLACEMENT_3D ( 'NONE', #3, #59, #111 ) ;
#2 = CC_DESIGN_PERSON_AND_ORGANIZATION_ASSIGNMENT ( #90, #81, ( #75 ) ) ;
#3 = CARTESIAN_POINT ( 'NONE',  ( 3.142333204958808581E-15, -1.959434878635758081E-16, 0.8999999999999966915 ) ) ;
#4 = EDGE_LOOP ( 'NONE', ( #122 ) ) ;
#5 = UNCERTAINTY_MEASURE_WITH_UNIT (LENGTH_MEASURE( 1.000000000000000082E-05 ), #23, 'distance_accuracy_value', 'NONE');
#6 = COORDINATED_UNIVERSAL_TIME_OFFSET ( 1, 0, .AHEAD. ) ;
#7 = CC_DESIGN_PERSON_AND_ORGANIZATION_ASSIGNMENT ( #14, #153, ( #75 ) ) ;
#8 = FACE_OUTER_BOUND ( 'NONE', #72, .T. ) ;
#9 = CIRCLE ( 'NONE', #102, 15.00000000000000000 ) ;
#10 = CARTESIAN_POINT ( 'NONE',  ( 3.142333204958817259E-15, -1.959434878635763504E-16, 0.8999999999999992450 ) ) ;
#11 = CARTESIAN_POINT ( 'NONE',  ( 3.142333204958820020E-15, 15.00000000000000000, 0.9000000000000000222 ) ) ;
#12 = COORDINATED_UNIVERSAL_TIME_OFFSET ( 1, 0, .AHEAD. ) ;
#13 = CC_DESIGN_PERSON_AND_ORGANIZATION_ASSIGNMENT ( #28, #156, ( #93 ) ) ;
#14 = PERSON_AND_ORGANIZATION ( #78, #32 ) ;
#15 = ORIENTED_EDGE ( 'NONE', *, *, #88, .T. ) ;
#16 = DIRECTION ( 'NONE',  ( 3.491481338843133355E-15, -2.177149865150850283E-16, 1.000000000000000000 ) ) ;
#17 = DIRECTION ( 'NONE',  ( 7.601478126039038399E-31, 1.000000000000000000, 2.177149865150850283E-16 ) ) ;
#18 = DIRECTION ( 'NONE',  ( -3.491481338843133355E-15, 2.177149865150850283E-16, -1.000000000000000000 ) ) ;
#19 =( NAMED_UNIT ( * ) PLANE_ANGLE_UNIT ( ) SI_UNIT ( $, .RADIAN. ) );
#20 = PERSON_AND_ORGANIZATION ( #78, #32 ) ;
#21 = DIRECTION ( 'NONE',  ( 0.0000000000000000000, 0.0000000000000000000, 1.000000000000000000 ) ) ;
#22 = AXIS2_PLACEMENT_3D ( 'NONE', #137, #18, #73 ) ;
#23 =( LENGTH_UNIT ( ) NAMED_UNIT ( * ) SI_UNIT ( .MILLI., .METRE. ) );
#24 = DATE_AND_TIME ( #38, #166 ) ;
#25 = COORDINATED_UNIVERSAL_TIME_OFFSET ( 1, 0, .AHEAD. ) ;
#26 = AXIS2_PLACEMENT_3D ( 'NONE', #126, #87, #127 ) ;
#27 = ADVANCED_FACE ( 'NONE', ( #56, #110 ), #97, .T. ) ;
#28 = PERSON_AND_ORGANIZATION ( #78, #32 ) ;
#29 = LOCAL_TIME ( 13, 59, 19.00000000000000000, #25 ) ;
#30 = ADVANCED_FACE ( 'NONE', ( #134, #125 ), #84, .T. ) ;
#31 = EDGE_LOOP ( 'NONE', ( #15 ) ) ;
#32 = ORGANIZATION ( 'UNSPECIFIED', 'UNSPECIFIED', '' ) ;
#33 = DIRECTION ( 'NONE',  ( 7.703719777548943412E-31, 1.000000000000000000, 2.168404344971008868E-16 ) ) ;
#34 = CARTESIAN_POINT ( 'NONE',  ( 0.0000000000000000000, 4.000000000000000000, 0.0000000000000000000 ) ) ;
#35 = PERSON_AND_ORGANIZATION ( #78, #32 ) ;
#36 = EDGE_CURVE ( 'NONE', #50, #50, #96, .T. ) ;
#37 = DATE_AND_TIME ( #74, #42 ) ;
#38 = CALENDAR_DATE ( 2021, 6, 12 ) ;
#39 = ADVANCED_FACE ( 'NONE', ( #159, #61 ), #112, .T. ) ;
#40 = APPROVAL_ROLE ( '' ) ;
#41 = PERSON_AND_ORGANIZATION ( #78, #32 ) ;
#42 = LOCAL_TIME ( 13, 59, 19.00000000000000000, #152 ) ;
#43 =( GEOMETRIC_REPRESENTATION_CONTEXT ( 3 ) GLOBAL_UNCERTAINTY_ASSIGNED_CONTEXT ( ( #5 ) ) GLOBAL_UNIT_ASSIGNED_CONTEXT ( ( #23, #19, #46 ) ) REPRESENTATION_CONTEXT ( 'NONE', 'WORKASPACE' ) );
#44 = EDGE_LOOP ( 'NONE', ( #123 ) ) ;
#45 = CARTESIAN_POINT ( 'NONE',  ( 3.142333204958815681E-15, 4.000000000000000000, 0.8999999999999988010 ) ) ;
#46 =( NAMED_UNIT ( * ) SI_UNIT ( $, .STERADIAN. ) SOLID_ANGLE_UNIT ( ) );
#47 = APPROVAL ( #95, 'UNSPECIFIED' ) ;
#48 = APPROVAL_STATUS ( 'not_yet_approved' ) ;
#49 = PERSON_AND_ORGANIZATION_ROLE ( 'design_owner' ) ;
#50 = VERTEX_POINT ( 'NONE', #11 ) ;
#51 = APPLICATION_CONTEXT ( 'configuration controlled 3d designs of mechanical parts and assemblies' ) ;
#52 = APPROVAL_DATE_TIME ( #24, #139 ) ;
#53 = APPROVAL_PERSON_ORGANIZATION ( #100, #133, #138 ) ;
#54 = APPLICATION_CONTEXT ( 'configuration controlled 3d designs of mechanical parts and assemblies' ) ;
#55 = EDGE_LOOP ( 'NONE', ( #62 ) ) ;
#56 = FACE_OUTER_BOUND ( 'NONE', #31, .T. ) ;
#57 = AXIS2_PLACEMENT_3D ( 'NONE', #45, #16, #99 ) ;
#58 = CC_DESIGN_APPROVAL ( #133, ( #149 ) ) ;
#59 = DIRECTION ( 'NONE',  ( -3.491481338843133355E-15, 2.177149865150850283E-16, -1.000000000000000000 ) ) ;
#60 = EDGE_CURVE ( 'NONE', #86, #86, #119, .T. ) ;
#61 = FACE_OUTER_BOUND ( 'NONE', #82, .T. ) ;
#62 = ORIENTED_EDGE ( 'NONE', *, *, #36, .F. ) ;
#63 = CALENDAR_DATE ( 2021, 6, 12 ) ;
#64 = CARTESIAN_POINT ( 'NONE',  ( -1.140221718905855628E-29, 7.109972302989548151E-31, -3.265724797726275351E-15 ) ) ;
#65 = CARTESIAN_POINT ( 'NONE',  ( 0.0000000000000000000, 0.0000000000000000000, 0.0000000000000000000 ) ) ;
#66 = MANIFOLD_SOLID_BREP ( 'Corps-Déplacer/Copier1', #157 ) ;
#67 = CC_DESIGN_APPROVAL ( #139, ( #75 ) ) ;
#68 = DIRECTION ( 'NONE',  ( 7.601478126039037523E-31, 1.000000000000000000, 2.177149865150850283E-16 ) ) ;
#69 = DATE_TIME_ROLE ( 'classification_date' ) ;
#70 = ORIENTED_EDGE ( 'NONE', *, *, #60, .F. ) ;
#71 = ORIENTED_EDGE ( 'NONE', *, *, #88, .F. ) ;
#72 = EDGE_LOOP ( 'NONE', ( #136 ) ) ;
#73 = DIRECTION ( 'NONE',  ( 7.601478126039037523E-31, 1.000000000000000000, 2.177149865150850283E-16 ) ) ;
#74 = CALENDAR_DATE ( 2021, 6, 12 ) ;
#75 = PRODUCT_DEFINITION_FORMATION_WITH_SPECIFIED_SOURCE ( 'ANY', '', #107, .NOT_KNOWN. ) ;
#76 = DATE_TIME_ROLE ( 'creation_date' ) ;
#77 = CARTESIAN_POINT ( 'NONE',  ( 0.0000000000000000000, 15.00000000000000000, 0.0000000000000000000 ) ) ;
#78 = PERSON ( 'UNSPECIFIED', 'UNSPECIFIED', 'UNSPECIFIED', ('UNSPECIFIED'), ('UNSPECIFIED'), ('UNSPECIFIED') ) ;
#79 = DATE_AND_TIME ( #63, #168 ) ;
#80 = CC_DESIGN_APPROVAL ( #47, ( #93 ) ) ;
#81 = PERSON_AND_ORGANIZATION_ROLE ( 'design_supplier' ) ;
#82 = EDGE_LOOP ( 'NONE', ( #71 ) ) ;
#83 = DIRECTION ( 'NONE',  ( -3.491481338843133355E-15, 2.177149865150850283E-16, -1.000000000000000000 ) ) ;
#84 = PLANE ( 'NONE',  #57 ) ;
#85 = APPLICATION_PROTOCOL_DEFINITION ( 'international standard', 'config_control_design', 1994, #54 ) ;
#86 = VERTEX_POINT ( 'NONE', #34 ) ;
#87 = DIRECTION ( 'NONE',  ( -3.491481338843133355E-15, 2.177149865150850283E-16, -1.000000000000000000 ) ) ;
#88 = EDGE_CURVE ( 'NONE', #150, #150, #9, .T. ) ;
#89 = AXIS2_PLACEMENT_3D ( 'NONE', #10, #164, #33 ) ;
#90 = PERSON_AND_ORGANIZATION ( #78, #32 ) ;
#91 = DATE_AND_TIME ( #92, #29 ) ;
#92 = CALENDAR_DATE ( 2021, 6, 12 ) ;
#93 = SECURITY_CLASSIFICATION ( '', '', #120 ) ;
#94 = CALENDAR_DATE ( 2021, 6, 12 ) ;
#95 = APPROVAL_STATUS ( 'not_yet_approved' ) ;
#96 = CIRCLE ( 'NONE', #1, 15.00000000000000000 ) ;
#97 = PLANE ( 'NONE',  #162 ) ;
#98 = ADVANCED_BREP_SHAPE_REPRESENTATION ( '36052', ( #66, #108 ), #43 ) ;
#99 = DIRECTION ( 'NONE',  ( -7.601478126039038399E-31, -1.000000000000000000, -2.177149865150850283E-16 ) ) ;
#100 = PERSON_AND_ORGANIZATION ( #78, #32 ) ;
#101 = PERSON_AND_ORGANIZATION_ROLE ( 'creator' ) ;
#102 = AXIS2_PLACEMENT_3D ( 'NONE', #64, #105, #68 ) ;
#103 = CARTESIAN_POINT ( 'NONE',  ( 0.0000000000000000000, 0.0000000000000000000, 0.0000000000000000000 ) ) ;
#104 = PRODUCT_RELATED_PRODUCT_CATEGORY ( 'detail', '', ( #107 ) ) ;
#105 = DIRECTION ( 'NONE',  ( -3.491481338843133355E-15, 2.177149865150850283E-16, -1.000000000000000000 ) ) ;
#106 = COORDINATED_UNIVERSAL_TIME_OFFSET ( 1, 0, .AHEAD. ) ;
#107 = PRODUCT ( '36052', '36052', '', ( #131 ) ) ;
#108 = AXIS2_PLACEMENT_3D ( 'NONE', #103, #21, #129 ) ;
#109 = APPROVAL_PERSON_ORGANIZATION ( #41, #47, #40 ) ;
#110 = FACE_BOUND ( 'NONE', #169, .T. ) ;
#111 = DIRECTION ( 'NONE',  ( 7.703719777548943412E-31, 1.000000000000000000, 2.168404344971008868E-16 ) ) ;
#112 = CYLINDRICAL_SURFACE ( 'NONE', #22, 15.00000000000000000 ) ;
#113 = CC_DESIGN_DATE_AND_TIME_ASSIGNMENT ( #145, #69, ( #93 ) ) ;
#114 = DESIGN_CONTEXT ( 'detailed design', #51, 'design' ) ;
#115 = DIRECTION ( 'NONE',  ( -3.491481338843133355E-15, 2.177149865150850283E-16, -1.000000000000000000 ) ) ;
#116 = FACE_OUTER_BOUND ( 'NONE', #4, .T. ) ;
#117 = VERTEX_POINT ( 'NONE', #130 ) ;
#118 = APPROVAL_ROLE ( '' ) ;
#119 = CIRCLE ( 'NONE', #26, 4.000000000000000000 ) ;
#120 = SECURITY_CLASSIFICATION_LEVEL ( 'unclassified' ) ;
#121 = CIRCLE ( 'NONE', #89, 4.000000000000000000 ) ;
#122 = ORIENTED_EDGE ( 'NONE', *, *, #158, .F. ) ;
#123 = ORIENTED_EDGE ( 'NONE', *, *, #36, .T. ) ;
#124 = EDGE_LOOP ( 'NONE', ( #147 ) ) ;
#125 = FACE_OUTER_BOUND ( 'NONE', #55, .T. ) ;
#126 = CARTESIAN_POINT ( 'NONE',  ( -3.040591250415615359E-30, 1.895992614130546466E-31, -8.708599460603402118E-16 ) ) ;
#127 = DIRECTION ( 'NONE',  ( 7.601478126039038399E-31, 1.000000000000000000, 2.177149865150850530E-16 ) ) ;
#128 = APPROVAL_PERSON_ORGANIZATION ( #35, #139, #118 ) ;
#129 = DIRECTION ( 'NONE',  ( 1.000000000000000000, 0.0000000000000000000, 0.0000000000000000000 ) ) ;
#130 = CARTESIAN_POINT ( 'NONE',  ( 3.142333204958820414E-15, 4.000000000000000000, 0.9000000000000001332 ) ) ;
#131 = MECHANICAL_CONTEXT ( 'NONE', #54, 'mechanical' ) ;
#132 = ADVANCED_FACE ( 'NONE', ( #8, #116 ), #163, .F. ) ;
#133 = APPROVAL ( #48, 'UNSPECIFIED' ) ;
#134 = FACE_BOUND ( 'NONE', #124, .T. ) ;
#135 = CC_DESIGN_SECURITY_CLASSIFICATION ( #93, ( #75 ) ) ;
#136 = ORIENTED_EDGE ( 'NONE', *, *, #60, .T. ) ;
#137 = CARTESIAN_POINT ( 'NONE',  ( 0.0000000000000000000, 0.0000000000000000000, 0.0000000000000000000 ) ) ;
#138 = APPROVAL_ROLE ( '' ) ;
#139 = APPROVAL ( #141, 'UNSPECIFIED' ) ;
#140 = LOCAL_TIME ( 13, 59, 19.00000000000000000, #12 ) ;
#141 = APPROVAL_STATUS ( 'not_yet_approved' ) ;
#142 = PERSON_AND_ORGANIZATION ( #78, #32 ) ;
#143 = DIRECTION ( 'NONE',  ( 7.601478126039038399E-31, 1.000000000000000000, 2.177149865150850530E-16 ) ) ;
#144 = SHAPE_DEFINITION_REPRESENTATION ( #165, #98 ) ;
#145 = DATE_AND_TIME ( #94, #140 ) ;
#146 = CARTESIAN_POINT ( 'NONE',  ( -4.180812969321471338E-30, 4.000000000000000000, -1.197432425832967668E-15 ) ) ;
#147 = ORIENTED_EDGE ( 'NONE', *, *, #158, .T. ) ;
#148 = APPLICATION_PROTOCOL_DEFINITION ( 'international standard', 'config_control_design', 1994, #51 ) ;
#149 = PRODUCT_DEFINITION ( 'UNKNOWN', '', #75, #114 ) ;
#150 = VERTEX_POINT ( 'NONE', #77 ) ;
#151 = APPROVAL_DATE_TIME ( #37, #133 ) ;
#152 = COORDINATED_UNIVERSAL_TIME_OFFSET ( 1, 0, .AHEAD. ) ;
#153 = PERSON_AND_ORGANIZATION_ROLE ( 'creator' ) ;
#154 = APPROVAL_DATE_TIME ( #91, #47 ) ;
#155 = CC_DESIGN_PERSON_AND_ORGANIZATION_ASSIGNMENT ( #20, #101, ( #149 ) ) ;
#156 = PERSON_AND_ORGANIZATION_ROLE ( 'classification_officer' ) ;
#157 = CLOSED_SHELL ( 'NONE', ( #27, #39, #30, #132 ) ) ;
#158 = EDGE_CURVE ( 'NONE', #117, #117, #121, .T. ) ;
#159 = FACE_OUTER_BOUND ( 'NONE', #44, .T. ) ;
#160 = AXIS2_PLACEMENT_3D ( 'NONE', #65, #115, #143 ) ;
#161 = CC_DESIGN_DATE_AND_TIME_ASSIGNMENT ( #79, #76, ( #149 ) ) ;
#162 = AXIS2_PLACEMENT_3D ( 'NONE', #146, #83, #17 ) ;
#163 = CYLINDRICAL_SURFACE ( 'NONE', #160, 4.000000000000000000 ) ;
#164 = DIRECTION ( 'NONE',  ( -3.491481338843133355E-15, 2.177149865150850283E-16, -1.000000000000000000 ) ) ;
#165 = PRODUCT_DEFINITION_SHAPE ( 'NONE', 'NONE',  #149 ) ;
#166 = LOCAL_TIME ( 13, 59, 19.00000000000000000, #106 ) ;
#167 = CC_DESIGN_PERSON_AND_ORGANIZATION_ASSIGNMENT ( #142, #49, ( #107 ) ) ;
#168 = LOCAL_TIME ( 13, 59, 19.00000000000000000, #6 ) ;
#169 = EDGE_LOOP ( 'NONE', ( #70 ) ) ;
ENDSEC;
END-ISO-10303-21;
